» » »

Oasis, Go Let It Out Tabs (ver.1)

Artists:  A B C D E F G H I J K L M N O P Q R S T U V W X Y Z # 

Go Let It Out Tabs (ver.1)

Oasis Tabs
Rating:
0/5 (0 votes)
Go Let It Out lessons Tabs too difficult? Try these video lessons and learn fast
                (Repeat)
                                                       (3x)
E -----------------------------------------------------|
B -7-7--8-8--10---10-10-10----7-7-8-7------7-----------|
G ------------------------------------9--9---9-7--7--o-|
D -----------------------------------------------9---o-|
A -----------------------------------------------------|
e -----------------------------------------------------|

E ------------------------------------10~--------------|
B -7-7--8-8--10---10-10-10----7-7--10------------------|
G -----------------------------------------------------|
D -----------------------------------------------------|
A -----------------------------------------------------|
e -----------------------------------------------------|

                   (Repeat some times)
E ---------------|---------------------|---------------|
B -8--8-8--8-8-7-|---7-8--8-8--8-8-7---|---------------|
G ---------------|-o-----------------o-|---------------|
D ---------------|-o-----------------o-|---------------|
A ---------------|---------------------|---------------|
e ---------------|---------------------|---------------|
                                                          (Repeat some
times)
E ------------------------------------------------8-10-8------------------- ||
B ------------------------------8------------------------10-8-10-8--------- ||
G -7-10--7-10---7----7-10--7-10---7----7-10--7-10------------------10-7--o- ||
D -----------------------------------------------------------------------o- ||
A ------------------------------------------------------------------------- ||
e ------------------------------------------------------------------------- ||
                                                                (Fade out)
            

comments powered by Disqus
↑ Back to top | Oasis Tabs for Go Let It Out. Lyrics for acoustic guitar and electric guitar. Tablatures and chords are parodies/interpretations of the original songs. You may use it for private study, scholarship, research or language learning purposes only