» » »

Go Let It Out Bass tabs (ver.1)

Artists:  A B C D E F G H I J K L M N O P Q R S T U V W X Y Z # 

Go Let It Out Bass tabs (ver.1)

Oasis
Rating:
0/5 (0 votes)

Hard to play? Try these video lessons and learn fast.
                "Also on 'Familiar to Millions'.

No Bass for Intro, first verse or first chorus.

Pick up the bass!
|----------------------
|-5h7-7~--7-7~~~~~~~~~~ <= let ring
|----------------------
|----------------------
Verse2:
|------------6h7p6----
|-----5h7-7-7-----5h7-
|-0~------------------
|---------------------

Chorus:
|-------------------
|---------3-3023-5-5
|-5-5-5-5-----------
|-------------------

|--------------------------------
|---------3-3-3-3----------------
|-5-5-5-5-----------------3-3-3-3
|-----------------5-5-5-5--------

|----------------
|----------------
|---------5-5-5-5
|-3-3-3-3--------

Verse3:
|------------6h7p6-----------------6h7-9/
|-----5h7-7-7-----5h7-------5h7-7-7------
|-0~--------------------0~---------------
|----------------------------------------

Chorus:
|-------------------
|---------3-3023-5-5
|-5-5-5-5-----------
|-------------------

|--------------------------------
|---------3-3-3-3----------------
|-5-5-5-5-----------------3-3-3-3
|-----------------5-5-5-5--------

|-----------------------*----*                          *-----*
|------------------7777-*9999*  /____ on third time play*-797-*
|---------5-5/9999------*----*  \                       *----9*
|-3-3-3-3---------------*----*                          *-----*

Bridge:
|-----------------
|-----------------
|-5/17~-------17\5
|-----------------

|-------------------------------------------------
|-------------------------------------------------
|-17-17-17-17-17-17-17-17-17-17-17-17-17-15-15-12\
|-------------------------------------------------
Ending:(2 different versions)
Album Version:
|----------------------------
|----------------------------
|-5-5-5-5\10-10-1010---------
|--------------------888-8888

Live Version(on 'Familiar to Millions'):
|-------------------------------------
|-------------------------------------
|-5-554h5-55545-554-3-333\10-10-10-10-
|-------------------------------------
Solo:
|-----------------------------------
|-----------------------------------
|5-554h5-55545-540-3-333-30---------
|---------------------------3-33-333

very end part same as bridge part 1.

Rikki Strang
Bassist for 'Case'

This is the corrected version
the 1 that i sent last time was 5 frets/ a string too low in the verse.
"            
Hard to play? Try these video lessons and learn fast. | Correct




comments powered by Disqus
↑ Back to top | Tablatures and chords are parodies/interpretations of the original songs. You may use it for private study, scholarship, research or language learning purposes only