>
 >
Cigarettes And Alcohol 2

Cigarettes And Alcohol 2 Guitar Tabs

Oasis - Cigarettes And Alcohol 2 chords, tabs, tablatures, lyrics

Guitar lessons | Add/correct | Request | Top 50 tabs Artists:  A B C D E F G H I J K L M N O P Q R S T U V W X Y Z 0-9

Cigarettes And Alcohol 2 Guitar Tabs – Oasis

CD, Sheet music, Poster

Do you like Cigarettes And Alcohol 2? Share with your friends now
Bass TabsBass Tabs v2ChordsChords v2TabsTabs v2Tabs v3Tabs v4Ukulele
Tuning: EADGBe


intro
e----------------------------------------------- 
B-----------------------------------------------
G-----------------------------------------------
D--2--2-----2------2--2-----2---------2---------
A--2--2--4--2--4---2--2--4--2---------2---------
E--0--0--0--0--0---0--0--0--0---3--2--0---------

Bridge to chorus
e----------------------------------------------- 
B-----------------------------------------------
G-----------------------------3---l-r-----------
D--2--2-----2-----2--2-----2--4---e-i-----------
A--2--2--4--2--4--2--2--4--2--4---t-n-----------
E--0--0--0--0--0--0--0--0--0--2-----g-----------

chorus
e----------------------------------------------------------- 
B----12-12-12-12-10-10-9-------9--------9-10-9-10-9---------
G----13-13-13-13-8--8--9-------9--------9-9--9-9--9---------
D----------------------9-------9--------9-11-9-11-9---------
A-----------------------------------------------------------
E---------------------------0-------0-----------------------


e----------------------------------------------- 
B-----------------9-9-9-----9-10-9-10-9---------
G-----------------9-9-9-----9-9--9-9--9---------
D-----------------9-9-9-----9-11-9-11-9---------
A-----------------------------------------------
E--------32--0----------0----------------------





Comments


Popular Oasis tabs & chords
Alive Bass Tabs
Half The World Away Live Chords
It's A Crime Chords
Setting Sun Chords
Shes Electric 3 Chords
Columbia Tabs
Don Look Back In Anger Tabs
Little By Little 1 Tabs
Shakermaker Intro Tabs
Life In Vain Ukulele


Song lyrics



↑ Back to top | Tablatures and chords are parodies/interpretations of the original songs. You may use it for private study, scholarship, research or language learning purposes only
© 2014 AZChords.com Contact us | Privacy policy | DMCA | Add/correct tabs | Request tabs | Top 50 tabs