» » »

Oasis, Cigarettes & Alcohol Bass tabs (ver.1)

Artists:  A B C D E F G H I J K L M N O P Q R S T U V W X Y Z # 

Cigarettes & Alcohol Bass tabs (ver.1)

Oasis Tabs
 Rating:
4/5 (4 votes)
Cigarettes & Alcohol lessons Tabs too difficult? Try these video lessons and learn fast
1
                TUNING -EADG-

INTRO
----------------------------------------------------------
----------------------------------------------------------
--7-7--5-7-7--5-7-7-5-7---------7--5-7-7--5-7-------7--7--
-------------------------3-2-0----------------0-2/5-------

NOTE: the basic bass line which goes throught the song (all verses) is this:
|------------------------------------------------------|
|------------------------------------------------------|
|-7--5-7---5-7-7-5-7---------7-7-5-7--5-7-7-5-7--------|
|---------------------3-2-0----------------------3-2-0-|


VERSE
--5-7-7--5-7-7--5-7-7-5-7--------------------------------------5-
---------------------------0-2-3-2-2-2-2-2-0-2-3-5-5-5-5-0-5-7---

------------------------------------------------------------
------------------------------------------------------------
--7-7--5-7-7--5-7-7-5-7---------7--5-7-7--5-7-5-7-7--5-7-7--
-------------------------3-2-0--------------------------(0)-

--7-7--5-7-7--5-7-7-5-7------------------------------------4-5-
-------------------------0-5-3-2-2-2-2-2-0-2-3-5-5-5-5-5-7-----

-------------------------------------------------------------
-------------------------------------------------------------
--7-7--5-7-7--5-7-7-5-7---------7--5-7-7--5-7-7-5-7--7-7-----
-------------------------3-2-0---------------------------(3)-

PRE-CHORUS
----------------------------------
----------------------------------
----------------5-7-7-7-7-7-5-4---
--5-5-5-5-5-0-7-----------------7- x3

----------------------------------------------------------
----------------------------------------------------------
----------------5-7-7-7-7-7-7-7-7-5-5-5-5-5-4-------------
--5-5-5-5-5-0-7-------------------------------7-5--\3-2-0-

CHORUS
---------------------------------
---------------------------------
--------------4-5--5-5-2---------
--0-0-4-0-4-0------------5--5-3-2- x3

------------------------------------------------
------------------------------------------------
--------------4-5--5-5-2---------3----2---------
--0-0-4-0-4-0------------5--5-5------------0----

INTRO

VERSE
--5-7-7--5-7-7--5-7-7-5-7------------------------------------4-5-
---------------------------0-5-0-2-2-2-2-2-0-2-3-5-5-5-5-5-7-----

-----------------------------------------------------------
-----------------------------------------------------------
--7-7--5-7-7--5-7-7-5-7---------7--5-7-7--5-7-5-7-7--7-7-5-
-------------------------3-2-0-----------------------------

--7-7--5-7-7--5-7-7-5-7------------------------------------4-5-
-------------------------0-5-3-2-2-2-2-2-0-2-3-5-5-5-5-5-7-----

-----------------------------------------------------------
-----------------------------------------------------------
--7-7--5-7-7--5-7-7-5-7---------7--5-7-7--5-7-7-5-7--7-7-7-
-------------------------3-2-0-----------------------------

PRE-CHORUS

CHORUS NOTE: the Gis notes in all choruses may be G's (E-3-)
----------------------------------
----------------------------------
--------------4-5--5-5-2----------
--0-0-4-0-4-0------------5--5-3-2- x3

----------------------------------
----------------------------------
--------------4-5--5-5-2----------
--0-0-4-0-4-0------------5--5-3-2-

END
----------------------------------
----------------------------------
--------------4-5--5-5-2----------
--0-0-2-0-4-0------------5--5-3-2-
            
Submit corrections

comments powered by Disqus
↑ Back to top | Oasis Bass for Cigarettes & Alcohol. Lyrics for acoustic guitar and electric guitar. 1 Tablatures and chords are parodies/interpretations of the original songs. You may use it for private study, scholarship, research or language learning purposes only