>
 >
Cigarettes & Alcohol 1

Cigarettes & Alcohol 1 Bass Tabs

Oasis - Cigarettes & Alcohol 1 chords, tabs, tablatures, lyrics

Guitar lessons | Add/correct | Request | Top 50 tabs Artists:  A B C D E F G H I J K L M N O P Q R S T U V W X Y Z 0-9

Cigarettes & Alcohol 1 Bass Tabs – Oasis

CD, Sheet music, Poster

Do you like Cigarettes & Alcohol 1? Share with your friends now
Bass TabsBass Tabs v2
OASIS
Cigarettes & Alcohol, live (FAMILIAR TO MILLIONS)
	     

 - E A D G -



(the Band play's part of Led Zeppelins 'Whole Lotta Love')



Something like this:
      0.13	0.20	  0.26	    0.33	           0.44
|---------------------------------------------7--9-------------------
|--------------7--5----------5--------------9----------7-------------
|--5/7----7----------7----7-----7----7--10---------------10--8--7----
|--------------------------------------------------------------------

  		0.53	       1.05	    1.08
G-----------------------------------------------------|
D-----------------------------------------------------|
A----------------------5--7----7\-------7----7-7-7----|
E-12\/12---------5--7--------------0------------------|


Intro
|----------------------------------------------------|
|----------------------------------------------------|
|-7--5-7--5-7-7-5-7---------7--5-7--5-7-5-7-7--------|
|--------------------3-2-0---------------------3-2-0-|


Verse 1
|--------------------------------------------------------------
|--------------------------------------------------------------
|-7--5-7--5-7-7-5-7--4-2-------------------------------12-10-9-
|------------------------5-2-2-2-2-2-0-2/-5-5-5-5--/10---------

----------------------------------------------------
----------------------------------------------------
-7--5-7--5-7-7-5-7---------7--5-7--5-7-7-5-7--------
--------------------3-2-0---------------------3-2-0-

-7--5-7--5-7-7-5-7-------------------------------------12-10-9-
--------------------5-3-0-2-2-2-2-2-2-2-2/5-5-5-5--/10---------

----------------------------------------------------|
----------------------------------------------------|
-7--5-7--5-7-7-5-7---------7--5-7--5-7-7-5-7--3-2---|
--------------------3-2-0-------------------------0-|


PreChorus
|-----------------------------|
|-----------------------------|
|-----------5-7-7-7-7-7-7-7-7-|
|-5--5--5-7-------------------| x2

-------------------------------------------------------
-------------------------------------------------------
------------5-7-7-7-7-7-7-7-7-5--5----4-2--------------
--5--5--5-7-------------------------------5----5\3\2\--


Chorus
|-------------------------------|
|-------------------------------|
|-------------4-5--5-5----------|
|-0-0-4-0-4-0----------5--5-3-2-| x3

------------------------------------------------
------------------------------------------------
--------------4-5--5-5---------3----2-----------
--0-0-4-0-4-0----------5--5-5------------0------


Chorus variation
--------------------------------
--------------------------------
--------------2/5--5-5----------
--0-0-2-0-4-0----------5--5/9-7-



Intro again


Verse
|--------------------------------------------------------------
|--------------------------------------------------------------
|-7--5-7--5-7-7-5-7--4-2-0-----------------------------12-10-9-
|--------------------------2-2-2-2-2-2-2--/5--5-5--/10---------

-----------------------------------------------------
-----------------------------------------------------
-7--5-7--5-7-7-5-7---------7--5-7--5-7-7-5-7---------
--------------------3-2-0---------------------3-2-0--

------------------------------------------------------------
------------------------------------------------------------
-7--5-7--5-7-7-5-7--4-2-0---------------------------12-10-9-
--------------------------2-2-2-2-2-2--/5--5-5--/10---------

-----------------------------------------------------|
-----------------------------------------------------|
--7--5-7--5-7-7-5-7---------7--5-7--5-7-7-5-7--------|
---------------------3-2-0---------------------3-2-0-|


PreChorus
Chorus/the end


The jamming part in the end


h = hammer on
p = pull off

repeat as many time as you'll need
--------------------------
--------------------------
--7--7-7-7--7-7--4-5--4-5-
--------------------------

--------------------------
--------------------------
--7--7-7-7--7-7-\2-/5--4--
--------------------------


----------------------------------2-3/5--5--5-5-5-5-5/8--8-8-8--8-8/14-15-17-15-
--5--5--5-5-5-5-5-3--3--3-3-3-3-3-----------------------------------------------


-----------7--5----------------------------------------------12--10--9------------
-----------------7-5---------------------------2-3-5--5-5-5------------12-10-7----
--5--5-5-5-----------8-7-5-3--3-3-3--3-3--3--3---------------------------------10-


--8-8-8--8--8-8/14-15-17-15---------------------------5-5-5-5-5/8-8-8-8-8-8-
----------------------------5-5-5-5-5-5-3-3-3-3-3-3-3-----------------------


-----------------------------------------------------------
-----------------------------------------------------------
----------------------------5-5-5-5-5-5-5-5/8-8-8-8-8-8-7--
--5-5-5-5-5-5-5-3-3-3-3-3-3--------------------------------


-----------------------------------
-----------------------------------
--7-7-7-7-7-7-7-7-7-7------7----\--
-----------------------------------





Comments


Popular Oasis tabs & chords
Importance Of Being Idle Bass Tabs
Boy With The Blues 3 Chords
Little By Little 4 Chords
Live Forever 1 Chords
Lord Dont Slow Me Down 1 Chords
Its Gettin Better Man Drum Tabs
Dont Go Away Riff Tabs
Rock 'n' Roll Star Tabs
Shes Electric 3 Tabs
Fade In-out 2 Ukulele


Song lyrics



↑ Back to top | Tablatures and chords are parodies/interpretations of the original songs. You may use it for private study, scholarship, research or language learning purposes only
© 2014 AZChords.com Contact us | Privacy policy | DMCA | Add/correct tabs | Request tabs | Top 50 tabs