» » »

O.A.R., Love And Memories Tabs (ver.3)

Artists:  A B C D E F G H I J K L M N O P Q R S T U V W X Y Z # 

Love And Memories Tabs (ver.3)

O.A.R. Tabs
 Rating:
4/5 (4 votes)
Love And Memories lessons Tabs too difficult? Try these video lessons and learn fast
1
                This tab is absolutely correct 100% because i got it out of a songbook from O.A.R.'s 
 Enjoy, Joe Falcone
/=slide, pm=palm mute, ~=let ring

  Guitar 1                                  play once then guitar 2 comes in
|-----------------------------------------|-------------------------0-0-0-0|
|-----------------------------------------|-------------------------0-0-0-0|
|-8-8-8--9-9-9-9-/18-18-18-18-\13-13-13-13|8-8-8--9-9-9-9--6-6-6-6--1-1-1-1|
|-x-x-x--x-x-x-x---x--x--x--x---x--x--x--x|x-x-x--x-x-x-x--x-x-x-x--2-2-2-2|
|-x-x-x--x-x-x-x---x--x--x--x---x--x--x--x|x-x-x--x-x-x-x--x-x-x-x--2-2-2-2|
|-7-7-7--9-9-9-9-/17-17-17-17-\12-12-12-12|7-7-7--9-9-9-9--5-5-5-5--0-0-0-0|
|                                                                          |
| guitar 2                                                                 |
|-12--------------------------------------------|  play again              |
|------9-10--9-------------12----9-10-9---------|                          |
|---11----------11-10-11------11--------11-10-11|                          |
|-----------------------------------------------|                          |
|-----------------------------------------------|                          |
|-----------------------------------------------|                          |

guitars 1, 2       verse
|------------------------------------------------------------------|
|------------------------------------------------------------------|
|------------------------------------------------------------------|
|-9-9-9-9-9-9-9-9-9-9-9-9-9-9-9-9--9-9-9---------------------------|
|-6-6-6-7-7-7-7-7-7-7-7-7-7-7-7-7--6-6-6-6-6-6-6-6-6-6-6-6-6-6-6-6-|
|----------------------------------------7-7-7-7-7-7-7-7-7-7-7-7-7-|
  pm>>>>>>>>>>>>>>>>>>>>>>>>>>>>>>>>>>>>>>>>>>>>>>>>>>>>>>>>>>>>>>
-------------------------------------------------------------------|
-------------------------------------------------------------------|
-------------------------------------------------------------------|
--------------------------------9-9-9-9-9-9-9-9-9-9-9-9-9-9-9-9----|
4-4-4-4-4-4-4-4-4-4-4-4-4-4-4-4-6-6-6-7-7-7-7-7-7-7-7-7-7-7-7-7----|
5-5-5-5-5-5-5-5-5-5-5-5-5-5-5-5------------------------------------|
pm>>>>>>>>>>>>>>>>>>>>>>>>>>>>>>>>>>>>>>>>>>>>>>>>>>>>>>>>>>>>>>>>>

|------------------------------------------------------------------|
|------------------------------------------------------------------|
|------------------------------------------------------------------|
|-9-9-9-9-9-9-9-9-9-9-9-9-9-9-9-9--9-9-9---------------------------|
|-6-6-6-7-7-7-7-7-7-7-7-7-7-7-7-7--6-6-6-6-6-6-6-6-6-6-6-6-6-6-6-6-|
|----------------------------------------7-7-7-7-7-7-7-7-7-7-7-7-7-|
  pm>>>>>>>>>>>>>>>>>>>>>>>>>>>>>>>>>>>>>>>>>>>>>>>>>>>>>>>>>>>>>>

|--------------------------------------------------------------------|
|--------------------------------------------------------------------|
|-9-9-9-9---6-6-6-6-6-6-6-6-6-6-6-6-6-6-6-6--------------------------|
|-x-x-x-x---x-x-x-x-x-x-x-x-x-x-x-x-x-x-x-x--------------------------|
|-x-x-x-x---x-x-x-x-x-x-x-x-x-x-x-x-x-x-x-x--------------------------|
|-9-9-9-9---5-5-5-5-5-5-5-5-5-5-5-5-5-5-5-5--------------------------|
|pm>>>>>> | c r e s c e n d o  (get gradualy louder)>>>>>>>          |
|                                                                    |
|guitar 3 plays this with the above                                  |
|--------------------------------------------------------------------|
|--------------------------------------------------------------------|
|--------------------------------------------------------------------|
|-4-4-4-4-4-4-4-4-4-4-4-4-4-4-4-4-7-7-7-7-7-7-7-7--7-7-7-7-7-7-7-7-7-|
|-6-6-6-4-4-4-4-4-4-4-4-4-4-4-4-4-4-4-4-4-4-4-4-4--4-4-4-4-4-4-4-4-4-|
|---------------------------------5-5-5-5-5-5-5-5--5-5-5-5-5-5-5-5-5-|
pm>>>>>>>>>>>>>>>>>>>>>>>>>>>>>>>>>>>>>>>>>>>>>>>  crescendo>>>>>>>>

CHORUS repeat intro with guitar 1 and 2

INTERLUDE
gtar1|guitar2          |guitar 1 |guitar 2
|-7~-|-----------------|-------5-|-------------------------------|
|-7~-|-----------------|-------5-|--------5-5--------------------|
|-9~-|-----8-6-8-9-----|-----7---|--6-7-6-----6-4----------------|
|-9~-|-------------9---|---7-----|----------------7--------------|
|-7~-|---7-----------7-|-5-------|5------------------------------|
|----|-----------------|---------|-------------------------------|

 guitar 1 | guitar 2              | guitar 1   | guitar 2          |
|-------3-|-----------------------|---------0--|-------------------|
|-------3-|-5--5-4-2-------2---4--|---4--------|-------------------|
|-----5---|----------5-------5----|------4-----|-4-3-----3-3--3-4--|
|---5-----|------------3----------|------------|-----4------4------|
|-3-------|-----------------------|-2----------|-------------------|
|---------|-----------------------|------------|-------------------|

REPEAT VERSE


REPEAT CHORUS

 The End

this tab is 100? correct because it came from an O.A.R. songbook i bought off their 
and put it on here for others who don't have it. Enjoy :)
            
Submit corrections

comments powered by Disqus
↑ Back to top | O.A.R. Tabs for Love And Memories. Lyrics for acoustic guitar and electric guitar. 1 Tablatures and chords are parodies/interpretations of the original songs. You may use it for private study, scholarship, research or language learning purposes only