» » »

O.A.R., Love And Memories Tabs (ver.1)

Artists:  A B C D E F G H I J K L M N O P Q R S T U V W X Y Z # 

Love And Memories Tabs (ver.1)

O.A.R. Tabs
 Rating:
4/5 (4 votes)
Love And Memories lessons Tabs too difficult? Try these video lessons and learn fast
                Love and Memories       tabbed  by Ford Cruz

play with the rythm a bit and you'll get it

intro
e|----------------------------------------------|
B|----------------------------------------------|
G|--8-8-8---9-9-9-9--18-18-18-18--13-13-13-13---|
D|--x-x-x---x-x-x-x---x--x--x--x---x--x--x--x---|
A|--6-6-6---7-7-7-7--16-16-16-16--11-11-11-11---|
E|--7-7-7---9-9-9-9--17-17-17-17--12-12-12-12---|

e|----------------------------------------|
B|----------------------------------------|
G|--8-8-8---9-9-9-9---6-6-6-6--2-2-2-2----|
D|--x-x-x---x-x-x-x---x-x-x-x--2-2-2-2----|
A|--6-6-6---7-7-7-7---4-4-4-4--2-2-2-2----|
E|--7-7-7---9-9-9-9---5-5-5-5--0-0-0-0----|

guitar 2
e|-------------------------------------------|
B|------9-10-9-------------------------------|
G|-9-11--------11-9-11-----------------------|
D|-------------------------------------------|
A|-------------------------------------------|
E|-------------------------------------------|
            
Submit corrections

comments powered by Disqus
↑ Back to top | O.A.R. Tabs for Love And Memories. Lyrics for acoustic guitar and electric guitar. Tablatures and chords are parodies/interpretations of the original songs. You may use it for private study, scholarship, research or language learning purposes only