» » »

Love And Memories Tabs (ver.2)

Artists:  A B C D E F G H I J K L M N O P Q R S T U V W X Y Z # 

Love And Memories Tabs (ver.2)

O.A.R.
Rating:
0/5 (0 votes)

Hard to play? Try these video lessons and learn fast.
                Update 1/29/13 - Looking through my old tabs and noticed a few things that could be improved...
actually it needed somewhat of an overhaul. So here it is! Really, this is the closest thing
you'll find anywhere, and that's including that guy who claims he stole it straight out of the
book! 

Of a Revolution - Love and Memories

Intro:

Guitar 1:

e|--------------------------------------------------------------------------------|
B|--------------------------------------------------------------------------------|
G|--8-8-8--9-9-9-9--18-18-18-18--13-13-13-13--8-8-8--9-9-9-9--6-6-6-6--1-1-1-1----|
D|--x-x-x--x-x-x-x--x--x--x--x---x--x--x--x---x-x-x--x-x-x-x--x-x-x-x--2-2-2-2----|
A|--6-6-6--7-7-7-7--16-16-16-16--11-11-11-11--6-6-6--7-7-7-7--4-4-4-4--2-2-2-2----|
E|--7-7-7--9-9-9-9--17-17-17-17--12-12-12-12--7-7-7--9-9-9-9--5-5-5-5--0-0-0-0----|

    *
e|--------------------------------------------------------------------------------|
B|--------------------------------------------------------------------------------|
G|--8-8-8--9-9-9-9--18-18-18-18--13-13-13-13--8-8-8--9-9-9-9--6-6-6-6--9-9-9-9----|
D|--x-x-x--x-x-x-x--x--x--x--x---x--x--x--x---x-x-x--x-x-x-x--x-x-x-x--x-x-x-x----|
A|--6-6-6--7-7-7-7--16-16-16-16--11-11-11-11--6-6-6--7-7-7-7--4-4-4-4--7-7-7-7----|
E|--7-7-7--9-9-9-9--17-17-17-17--12-12-12-12--7-7-7--9-9-9-9--5-5-5-5--7-7-7-7----|

Guitar 2 (begins at * above):

e|---------------------|
B|------9-10-9---------|
G|-9-11--------11-9-11-|
D|---------------------| x4
A|---------------------|
E|---------------------|

Verse 1:

Guitar 1:
              
e|------------------------------------------------------------------|
B|------------------------------------------------------------------|
G|------------------------------------------------------------------|
D|------------------------------------------------------------------|
A|--6667777777777777666777777777777766677777777777776667777777777777|(palm mute)
E|--0000000000000000777777777777777755555555555555550000000000000000|

Guitar 1:
                                               *
e|----------------------------------------------------------00000000|
B|----------------------------------------------------------22222222|
G|----------------------------------------------------------22222222|
D|----------------------------------------------------------22222222|
A|--6667777777777777666777777777777766644444444444440000000000000000| (palm mute... gradually lift
E|--000000000000000077777777777777777777777777777777----------------| muting for last chord)

Guitar 2 (begins at * above):

e|444442222222222222222|
B|555552222222222222222|
G|666662222222222222222|
D|666662222222222222222|
A|-----0000000000000000| (palm mute... gradually lift
E|---------------------| muting for last chord)

Chorus:

Guitar 1:

e|--------------------------------------------------------------------------------|
B|--------------------------------------------------------------------------------|
G|--8-8-8--9-9-9-9--18-18-18-18--13-13-13-13--8-8-8--9-9-9-9--6-6-6-6--1-1-1-1----|
D|--x-x-x--x-x-x-x--x--x--x--x---x--x--x--x---x-x-x--x-x-x-x--x-x-x-x--2-2-2-2----|
A|--6-6-6--7-7-7-7--16-16-16-16--11-11-11-11--6-6-6--7-7-7-7--4-4-4-4--2-2-2-2----|
E|--7-7-7--9-9-9-9--17-17-17-17--12-12-12-12--7-7-7--9-9-9-9--5-5-5-5--0-0-0-0----|

e|--------------------------------------------------------------------------------|
B|--------------------------------------------------------------------------------|
G|--8-8-8--9-9-9-9--18-18-18-18--13-13-13-13--8-8-8--9-9-9-9--6-6-6-6--9-9-9-9----|
D|--x-x-x--x-x-x-x--x--x--x--x---x--x--x--x---x-x-x--x-x-x-x--x-x-x-x--x-x-x-x----|
A|--6-6-6--7-7-7-7--16-16-16-16--11-11-11-11--6-6-6--7-7-7-7--4-4-4-4--7-7-7-7----|
E|--7-7-7--9-9-9-9--17-17-17-17--12-12-12-12--7-7-7--9-9-9-9--5-5-5-5--7-7-7-7----|

Guitar 2:

e|-12----------------------------------------|
B|-------9-10-9---------12----9-10-9---------|
G|----11 -------11-9-11----11--------11-9-11-|
D|-------------------------------------------| x4
A|-------------------------------------------|
E|-------------------------------------------|

Verse 2:

Guitar 1:
                    *
e|------------------------------------------------------------------|
B|------------------------------------------------------------------|
G|------------------------------------------------------------------|
D|------------------------------------------------------------------|
A|--6667777777777777666777777777777766677777777777776667777777777777|(palm mute)
E|--0000000000000000777777777777777755555555555555550000000000000000|

Guitar 2 (begins at * above):

e|--------------------------------|
B|--------------------------------|
G|--------------------------------|
D|--------------------------------|
A|--------------------------------|
E|7~--------------5~--------------|

Guitar 1:
                    *
e|----------------------------------------------------------00000000|
B|----------------------------------------------------------22222222|
G|----------------------------------------------------------22222222|
D|----------------------------------------------------------22222222|
A|--6667777777777777666777777777777766644444444444440000000000000000| (palm mute... gradually lift
E|--000000000000000077777777777777777777777777777777----------------| muting for last chord)

Guitar 2 (begins at * above... start palm-muting at C#m then gradually lift for last chord):

e|-------------xxx44444444444444440000000000000000|
B|-------------xxx55555555555555552222222222222222|
G|-------------xxx66666666666666662222222222222222|
D|-------------xxx66666666666666662222222222222222|
A|-------------xxx44444444444444440000000000000000|
E|7~----------------------------------------------|

Chorus:

Guitar 1:

e|-----------------------------------------------------------------------------------|
B|-----------------------------------------------------------------------------------|
G|--8-8-8--9-9-9-9--18-18-18-18--13-13-13-13---8-8-8---9-9-9-9---6-6-6-6--1-1-1-1----|
D|--x-x-x--x-x-x-x--x--x--x--x---x--x--x--x----x-x-x---x-x-x-x---x-x-x-x--2-2-2-2----|  x3
A|--6-6-6--7-7-7-7--16-16-16-16--11-11-11-11---6-6-6---7-7-7-7---4-4-4-4--2-2-2-2----|
E|--7-7-7--9-9-9-9--17-17-17-17--12-12-12-12---7-7-7---9-9-9-9---5-5-5-5--0-0-0-0----|

e|-----------------------------------------------------------------------------------|
B|-----------------------------------------------------------------------------------|
G|--8-8-8--9-9-9-9--18-18-18-18--13-13-13-13---8-8-8---9-9-9-9---6-6-6-6--9-9-9-9----|
D|--x-x-x--x-x-x-x--x--x--x--x---x--x--x--x----x-x-x---x-x-x-x---x-x-x-x--x-x-x-x----|
A|--6-6-6--7-7-7-7--16-16-16-16--11-11-11-11---6-6-6---7-7-7-7---4-4-4-4--7-7-7-7----|
E|--7-7-7--9-9-9-9--17-17-17-17--12-12-12-12---7-7-7---9-9-9-9---5-5-5-5--7-7-7-7----|

Guitar 2:

e|-12----------------------------------------|
B|-------9-10-9---------12----9-10-9---------|
G|----11 -------11-9-11----11--------11-9-11-|
D|-------------------------------------------| x8
A|-------------------------------------------|
E|-------------------------------------------|

Guitar 1 between Chorus and Verse 3:

  E9       D9          C9            Bsus4
e|7~7~---------5-5~--------3-3~-----------0~-|
B|7~7~---------5~--------3~-----------4~-----|
G|9~9~-------7~--------5~---------------4~---|
D|9~9~-----------------5~--------------------|
A|7~7~-----5~----------3~-----------2~-------|
E|-------------------------------------------|

Guitar 2 between Chorus and Verse 3 (very subtle... listen close for timing):

  E9               D9                 C9                    Bsus4
e|-------------------------------------------------------------------------------|
B|---------------------------------------------------------------------4---------|
G|---9-8-9-8--------7-6-7-6-9-7-6--------5--5-4-----5-4--------4-3-------4-3-----|
D|-----------11-9-9---------------9-7-----------7-5-----7-5--------6-4-------6-4-| (palm mute)
A|-------------------------------------------------------------------------------|
E|-------------------------------------------------------------------------------|

Verse 3:

Guitar 1:
                            *
e|------------------------------------------------------------------|
B|----------------------------------------------------------99999999|
G|----------------------------------------------------------99999999|
D|----------------------------------------------------------99999999|
A|--6667777777777777666777777777777766677777777777776667777777777777| (palm mute... gradually lift)
E|--0000000000000000777777777777777755555555555555550000000000000000| muting for last chord)

Guitar 2 (begins at * above... palm mute everything then gradually lift muting for last chord):

e|----------------------------------------|
B|---------------------------9999999999999|
G|---------------------------9999999999999|
D|4444444422222222222222229999999999999999|
A|2222222200000000000000006667777777777777|
E|----------------------------------------|

Chorus:

Guitar 1:

e|-----------------------------------------------------------------------------------|
B|-----------------------------------------------------------------------------------|
G|--8-8-8--9-9-9-9--18-18-18-18--13-13-13-13---8-8-8---9-9-9-9---6-6-6-6--1-1-1-1----|
D|--x-x-x--x-x-x-x--x--x--x--x---x--x--x--x----x-x-x---x-x-x-x---x-x-x-x--2-2-2-2----|  x5
A|--6-6-6--7-7-7-7--16-16-16-16--11-11-11-11---6-6-6---7-7-7-7---4-4-4-4--2-2-2-2----|
E|--7-7-7--9-9-9-9--17-17-17-17--12-12-12-12---7-7-7---9-9-9-9---5-5-5-5--0-0-0-0----|

e|-------------------------------------------------------------------------------|
B|-------------------------------------------------------------------------------|
G|--8-8-8--9-9-9-9--18-18-18-18--13-13-13-13---8-8-8---9-9-9-9---6-6-6-6--9-9----|
D|--x-x-x--x-x-x-x--x--x--x--x---x--x--x--x----x-x-x---x-x-x-x---x-x-x-x--x-x----|
A|--6-6-6--7-7-7-7--16-16-16-16--11-11-11-11---6-6-6---7-7-7-7---4-4-4-4--7-7----|
E|--7-7-7--9-9-9-9--17-17-17-17--12-12-12-12---7-7-7---9-9-9-9---5-5-5-5--7-7----|

Guitar 2:

e|-12----------------------------------------|
B|-------9-10-9---------12----9-10-9---------|
G|----11 -------11-9-11----11--------11-9-11-|
D|-------------------------------------------| x11
A|-------------------------------------------|
E|-------------------------------------------|

e|-12------------------------------------------------|
B|-------9-10-9---------12----9-10-9-----------------|
G|----11 -------11-9-11----11--------9~--------------|
D|---------------------------------------------------|
A|---------------------------------------------------|
E|---------------------------------------------------|
            
Hard to play? Try these video lessons and learn fast. | Correct




comments powered by Disqus
↑ Back to top | Tablatures and chords are parodies/interpretations of the original songs. You may use it for private study, scholarship, research or language learning purposes only