» » »

Nirvana, Where Did You Sleep Last Night? Tabs (ver.3)

Artists:  A B C D E F G H I J K L M N O P Q R S T U V W X Y Z # 

Where Did You Sleep Last Night? Tabs (ver.3)

Nirvana Tabs
 Rating:
4/5 (4 votes)
Where Did You Sleep Last Night? lessons Tabs too difficult? Try these video lessons and learn fast
                tune guitar down whole step (D-G-C-F-A-D)

bend: )



Intro:

------0---|---------------|----------------|------3-----|-------------|-----------
------0---|---------------|-----2--2--0----|--0---0---0-|-4----4-4-4--|--------4---
------2---|---------------|-----2--2--0----|--0---0---0-|-4----4-4-4--|--------4---
-2--------|-2---2---------|--2--2--2--0----|--0-------0-|-4----4-4-4--|----4---4---
-2--------|-2---2---------|--0-------------|--2-------2-|-2----2-2-2--|----2-------
-0--------|-0-------0-2-3-|----------------|--3-------3-|-------------|-2--2------0


------0-0-0--|-0---0-0-0-0-|
-0----0-0-0--|-0---0-0-0-0-|
-1----1-1-1--|-1---1-1-1-1-|
-2-----------|-2---2-2-2-2-|
-2-----------|-2---2-2-2-2-|
-0-----------|-0---0-0-0-0-|


Verse:

-----------|----------|-----------|-------------|--------------|-----------|---------
-----------|----------|-----------|------2----0-|--------0-----|----4-4-4--|---------
-----------|----------|-----------|------2----0-|--------0-----|----4-4-4--|----4----
-------2---|----2-----|-----2---0-|--2------2---|-----0-----0--|-4--4-4-4--|----4----
-----2---2-|------2-2-|-2-----2---|--0------0---|--------------|-2---------|-2-----)-
-0---------|-0--------|-0-----0---|-------------|-3------------|-----------|-------2-


------------|-0--------0-|-0---0--0-|-0--0---------|-------------|------3-------|
----------0-|-0--0-----0-|-0---0--0-|-0--0------0--|--2---2-2--0-|--0---0--0-0--|
-----1----1-|-X-----2----|-X--------|-X---------0--|--2---2-2--0-|--0---0--0-0--|
-----2------|-2-----2----|-2--------|-2------2--0--|--2---2-2--0-|--0------0-0--|
-2----------|-2----------|-2--------|-2------2-----|--0----------|--X------0-0--|
-0------0---|-0----------|-0--------|-0------0-----|-------------|--------------|


------------|--------------|-------------|---------0-0-|
-4--4-4-4-4-|-4--4-4-4--0--|-0----0-0-0--|-0---0-0-0-0-|
-4--4-4-4-4-|-4--4-4-4--0--|-X----X-X-X--|-X---X-X-X-X-|
-4--4-4-4-4-|-4------4-----|-2----2-2-2--|-2---2-2-2-2-|
-2--2-2-2-2-|-2------2-----|-2----2-2-2--|-2---2-2-2-2-|
------------|--------------|-0----0-0-0--|-0---0-0-0-0-|


Outro:

----------|--------|--------|--------|--------|------------|-----------|-----------|
-4----4-4-|-4------|--------|--------|--------|------------|-----------|-----------|
-4----4-4-|-4------|--------|--------|--------|-2----2-2-2-|-2---2-2-2-|-2---2-2-2-|
-4----4-4-|-4------|--------|--------|--------|-2----2-2-2-|-2---2-2-2-|-2---2-2-2-|
-2----2-2-|-2------|--------|--------|--------|-2----2-2-2-|-2---2-2-2-|-2---2-2-2-|
----------|--------|--------|--------|--------|-0----0-0-0-|-0---0-0-0-|-0---0-0-0-|


-----------|-----------|-----0---|
-----------|-4---4-4-4-|---------|
-2---2-2-2-|-4---4-4-4-|---------|
-2---2-2-2-|-4---4-4-4-|-2-------|
-2---2-2-2-|-2---2-2-2-|-2-------|
-0---0-0-0-|-----------|-0-------|


-Verse 1-
My girl, my girl dont lie to me,
Tell me where did you sleep last night?
In the pines, in the pines where the sun don`t ever shine,
I will shiver the whole night trough.

-Verse 2-
My girl, my girl where will you go
I`m going where the cold wind blows
In the pines, in the pines where the sun don`t ever shine
I will shiver the whole night trough.

-Verse 3-
Her husband was a hard working man
Just about a mile from here.
His head was found in a driving wheel
but his body never was found

-Verse 4-
My girl, my girl dont lie to me,
Tell me where did you sleep last night?
In the pines, in the pines where the sun don`t ever shine,
I will shiver the whole night trough.

-Verse 5-
My girl, my girl where will you go
I`m going where the cold wind blows
In the pines, in the pines where the sun don`t ever shine
I will shiver the whole night trough.

-Verse 6-
My girl, my girl dont lie to me,
Tell me where did you sleep last night?
In the pines, in the pines where the sun don`t ever shine,
I will shiver the whole night trough.

-Verse 7-
My girl, my girl where will you go
I`m going where the cold wind blows
In the pines, in the pines where the sun don`t ever shine
I will shiver the whole night trough.
            
Submit corrections

comments powered by Disqus
↑ Back to top | Nirvana Tabs for Where Did You Sleep Last Night?. Lyrics for acoustic guitar and electric guitar. Tablatures and chords are parodies/interpretations of the original songs. You may use it for private study, scholarship, research or language learning purposes only