» » »

Where Did You Sleep Last Night? Tabs (ver.2)

Artists:  A B C D E F G H I J K L M N O P Q R S T U V W X Y Z # 

Where Did You Sleep Last Night? Tabs (ver.2)

Nirvana
Rating:
0/5 (0 votes)

Hard to play? Try these video lessons and learn fast.
                Sorry about the shortness of the tab, but it's all that's needed!  The
strumming pattern is quite easy to figure out.  Have fun with this tab!
Please be sure to ask me before you go and steal this tab and claim credit
for it.  I've also included two different methods of playing this song.  I
personally use the first, but it's your choice!  Long Live Rock!


MAIN RIFF:
----------
     E5              A     G5    B     B/F#  E5
Eb|--0---------------------3-----------------0-----------------------|
Bb|--0---------------2-----3-----4-----4-----0-----------------------|
Gb|--x---------------2-----0-----4-----4-----x-----------------------|
Db|--2---------------2-----0-----4-----4-----2-----------------------|
Ab|--2---------------0-----x-----2-----2-----2-----------------------|
Eb|--0---------0h2h3-------3-----------2-----0-----------------------|
               ^ Optional.



MAIN RIFF:
----------
     E5              A     G5    B     F#M   E5
Eb|--0---------------------------------------0-----------------------|
Bb|--0---------------------------------------0-----------------------|
Gb|--x---------------2-----------4-----------x-----------------------|
Db|--2---------------2-----5-----4-----4-----2-----------------------|
Ab|--2---------------0-----5-----2-----4-----2-----------------------|
Eb|--0---------0h2h3-------3-----------2-----0-----------------------|
               ^ Optional.



---------------------------------------------
---------------------------------------------
            
Hard to play? Try these video lessons and learn fast. | Correct




comments powered by Disqus
↑ Back to top | Tablatures and chords are parodies/interpretations of the original songs. You may use it for private study, scholarship, research or language learning purposes only