» » »

Nirvana, Where Did You Sleep Last Night? Tabs (ver.1)

Artists:  A B C D E F G H I J K L M N O P Q R S T U V W X Y Z # 

Where Did You Sleep Last Night? Tabs (ver.1)

Nirvana Tabs
Rating:
0/5 (0 votes)
Where Did You Sleep Last Night? lessons Tabs too difficult? Try these video lessons and learn fast
                Where Did You Sleep Last Night
Tune Down 1/2 a step 

intro

e-----0--0-----------------------------3-------------------------------------
b--0--0--0---------------2--2--0-------0---0--4---4--4--4--------4-----------
g--x--2--x--2------------2--2--0-------0---0--4---4--4--4--------4-----------
d--2-----2--2--------2------2--0---0-------0--4---4--4--4--------4-----------
a--2-----2-----------0------0------x-------x--2------2--------2--------------
e--0-----0-----0-2-3---------------3-------3---------------2--2-----(0)------

e------------0--0------0--------0--(0)-0------0---0--------------------------
b--0---0--0--0--0---0--0--0--0--0---0--0---0--0---0--------------2--0--------
g--x---x--x--x--x---x--x--x--x--x-------------x---x--------------2--0--------
d--2------------2---------------2-------------2--------------2---2--0--------
a--2------------2---------------2-------------2--------------0---0-----------
e--0------------0---------------0-------------0-------0-2-3------------------

e------3-------------------------------------0-------------------------------
b------0--0---4---4--4--4--4--4--4-----------0-------------------------------
g------0--0---4---4--4--4--4--4--4-----------x-------------------------------
d--0----------4---4--4--4--4--4--4-----2--2----------------------------------
a--x----------2------2-----2--2--2-----2------------2------------------------
e--3-----------------------2--2--2--0--0---------0---------------------------
 verse      
e----------------------------------------------------------------------------
b-------------------------------------------2----0-------0-------4--4--4-----
g-------------------------------------------2----0-------0-------4--4--4-----
d------2----------2------------2-----0--2------2-------0-----4---4--4--4-----
a----2---2-----------------2------2-----0------0-------------2---------------
e--0---------0-------0--0--0------0------------------3-----------------------

e----------------------------0--------0--0---0---0--0---0--------------------
b-----------------------0----0---0----0--0---0---0--0---0-----0--------------
g------4-----------x----x----x---x--x----x----------x---------0--------------
d------4-----------2---------2------2----2----------2------2-----------------
a--2-------)--2--------------2-----------2----------2------2-----------------
e---------2---0 ------0------0-----------0----------0------0-----------------

e-------(0)-------3--------------------------------------------0-------------
b--2---2-2-0--0---0-0-0--4---4-4-4--4--4-4-4-0--0--0-0-0--0--0-0-0-----------
g--2---2-2-0--0---0-0-0--4---4-4-4--4--4-4-4-0--x--x-x-x--x--x-x-x-----------
d--2-----2-0--0-----0----4---4-4-4--4--4---4----2----2----2--2---2-----------
a--0----------x-----0----2-----2----2-----------2----2----2------2-----------
e-------------3---------------------------------0----0----0------0-----------
The rest is just the chords
E        A         G           B
            

comments powered by Disqus
↑ Back to top | Nirvana Tabs for Where Did You Sleep Last Night?. Lyrics for acoustic guitar and electric guitar. Tablatures and chords are parodies/interpretations of the original songs. You may use it for private study, scholarship, research or language learning purposes only