» » »

Something In The Way Tabs (ver.3)

Artists:  A B C D E F G H I J K L M N O P Q R S T U V W X Y Z # 

Something In The Way Tabs (ver.3)

Nirvana
Rating:
0/5 (0 votes)

Hard to play? Try these video lessons and learn fast.
                It starts off with bass

(Intro-Bass)

E---------------------
A---------------------
D---------------------
G---------------------
B-2-2-2--0------------
E-----------3-3-3--0--
 Underneath the Bridge

(Chorus)

   E               C

It Keeps Going Like That

E------------------
A----------1-1-111-
D------------------
G-2-2-222----------
B-2-2-222--2-2-222-
E----------3-3-333-


E-------------------------------
A-----------------1--1----1-1-1-
D-------------------------------
G-2--2----2-2-2-----------------
B-2--2----2-2-2---2--2----2-2-2-
E-----------------3--3----3-3-3-
 Somethings In The Way.....oooh
            
Hard to play? Try these video lessons and learn fast. | Correct




comments powered by Disqus
↑ Back to top | Tablatures and chords are parodies/interpretations of the original songs. You may use it for private study, scholarship, research or language learning purposes only