» » »

Nirvana, Something In The Way Tabs (ver.1)

Artists:  A B C D E F G H I J K L M N O P Q R S T U V W X Y Z # 

Something In The Way Tabs (ver.1)

Nirvana Tabs
Rating:
0/5 (0 votes)
Hard to play? Try these video lessons and learn fast.
                Something in the Way
By Nirvana
Unplugged and Live Versions

Tune to:  Db Ab Db Gb Bb eb  (low to hi)

Notes:
1.  There's no distortion or any real effects, 
    but slight reverb and an equalizer sound good.  
2.  I have live versions of SITW where they do the
    intro riff for the verses, and others where 
    they use power chords.  Listen to Unplugged to
    hear both.

Intro:
e|--------------------------|
B|--------------------------|
G|--------------------------|
D|--------------------------|
A|----4----4-------0----0---|
D|-4-----4---4--0-----0---0-|

Verse:
e|-------------------------|
B|-------------------------|
G|-------------------------|
D|-------------------------|
A|-4---4--4-4---0---0--0-0-|
D|-4---4--4-4---0---0--0-0-|

Chorus:
e|-------------------------|
B|--------------3---3--3-3-|
G|--------------2---2--2-2-|
D|--------------0---0--0-0-|
A|-4---4--4-4---0---0--0-0-|
D|-4---4--4-4---x---x--x-x-|

By Kyle Stout
            

comments powered by Disqus
↑ Back to top | Nirvana Tabs for Something In The Way. Lyrics for acoustic guitar and electric guitar. Tablatures and chords are parodies/interpretations of the original songs. You may use it for private study, scholarship, research or language learning purposes only