» » »

Nirvana, Something In The Way Tabs (ver.2)

Artists:  A B C D E F G H I J K L M N O P Q R S T U V W X Y Z # 

Something In The Way Tabs (ver.2)

Nirvana Tabs
 Rating:
4/5 (4 votes)
Something In The Way lessons Tabs too difficult? Try these video lessons and learn fast
                This is every version of Something in the Way by Kurt Cobain.

 
Tune all down one step.
x= mute

~~~~~~~~~~~~~~~~~~~~~~~~~~~~~~~~~~~~~~~~~~~~~~~~~~~~~~~~~~~~~~
Nevermind Version:

Verse:
  Em           C 
[--------------------------]
[--------------1-----1--1-1]
[--------------------------]
[-2-----2--2-2-2-----2--2-2]  
[-2-----2--2-2-3-----3--3-3]
[--------------------------]


Verse to Chorus:
  Em           C
[-----------------------------]
[--------------1-----1-1-1-1-1]
[-----------------------------]
[-2-----2--2-2-2-----2-2-2-2-2]
[-2-----2--2-2-3-----3-3-3-3-3]
[-----------------------------]


Chorus:
  Em          C            Em            C
[----------------------------------------------------------------]
[-----------------1-----1--1--1-1-----------------1-----1-1-1-1-1]
[----------------------------------------------------------------]
[-2-----2--2--2-2-2-----2--2--2-2-2-----2--2--2-2-2-----2-2-2-2-2]
[-2-----2--2--2-2-3-----3--3--3-3-2-----2--2--2-2-3-----3-3-3-3-3]
[----------------------------------------------------------------]


Chorus to Verse:

 Em          C            Em            C   (let ring until faded)
[--------------------------------------------------~~~~~]
[-----------------1-----1--1--1-1-----------------1~~~~~]
[--------------------------------------------------~~~~~]
[-2-----2--2--2-2-2-----2--2--2-2-2-----2--2--2-2-2~~~~~]
[-2-----2--2--2-2-3-----3--3--3-3-2-----2--2--2-2-3~~~~~]
[--------------------------------------------------~~~~~]


Heres the order:

Verse 11x 
Verse to Chorus
Chorus 5x
Chorus to Verse
Verse 7x
Verse to Chorus
Chorus 7x
Chorus to Verse
~~~~~~~~~~~~~~~~~~~~~~~~~~~~~~~~~~~~~~~~~~~~~~~~~~~~~~~~~
Unplugged in New York Version:

This way seems wrong to me, but i can't find anything else that works,
so i guess this is it.

 Verse:
[--------------------]
[--------------------]
[--------------------]
[--------------------]
[-----4--4------0--0-]
[-4-----4-4-0-----0-0]

Verse to Chorus:
[------------------0-0-0]
[------------------0-0-0]
[------------------0-0-0]
[-----------------------]
[-----4--4------0-------]
[-4-----4-4-0-----0-----]

Chorus:
[-----------------0-----0--0--0-0-----------------0-----0---0-0-0]
[-----------------1-----1--1--1-1-----------------1-----1---1-1-1]
[-----------------0-----0--0--0-0-----------------0-----0---0-0-0]
[-2-----2--2--2-2-2-----2--2--2-2-2-----2--2--2-2-2-----2---2-2-2]
[-2-----2--2--2-2-----------------2-----2--2--2-2----------------]
[----------------------------------------------------------------]

Chorus to Verse:
[-----------------0-----0--0--0-0-----------------0-----0---0-0-0~~~~~]
[-----------------1-----1--1--1-1-----------------1-----1---1-1-1~~~~~]
[-----------------0-----0--0--0-0-----------------0-----0---0-0-0~~~~~]
[-2-----2--2--2-2-2-----2--2--2-2-2-----2--2--2-2-2-----2---2-2-2~~~~~]
[-2-----2--2--2-2-----------------2-----2--2--2-2---------------------]
[---------------------------------------------------------------------]

Outro:
[-----------------0-----0--0--0-0-----------------x-0--0-0-0-0-0--0--0~~~~~]
[-----------------1-----1--1--1-1-----------------x-1--1-1-1-1-1--1--1~~~~~]
[-----------------0-----0--0--0-0-----------------x-0--0-0-0-0-0--0--0~~~~~]
[-2-----2--2--2-2-2-----2--2--2-2-2-----2--2--2-2-x-2--2-2-2-2-2--2--2~~~~~]
[-2-----2--2--2-2-----------------2-----2--2--2-2--------------------------]
[--------------------------------------------------------------------------]

Order:

Verse 11x 
Verse to Chorus
Chorus 5x
Chorus to Verse
Verse 7x
Verse to Chorus
Chorus 7x
Chorus to Verse
Outro
~~~~~~~~~~~~~~~~~~~~~~~~~~~~~~~~~~~~~~~~~~~~~~~~~~~~~~~~~~~~~~~~~~~~~~~~~~

And now for the B-side Themselves version

Intro:
[----------]
[----------]
[----------]
[--------4-]
[---4---4--]
[-44--44---]


Verse:
[------------------]
[------------------]
[------------------]
[---4--4-----0--0--]
[---4--4-----0--0--]
[4----4-4-0---00-0-]

Verse to Chorus:
[------------------]
[------------------]
[------------------]
[---4--4-----0-0-0-]
[---4--4-----0-0-0-]
[4----4-4-0--0-0-0-]
                  ^Feedback

Chorus:
  Em          C            Em            C
[----------------------------------------------------------------]
[-----------------1-----1--1--1-1-----------------1-----1-1-1-1-1]
[----------------------------------------------------------------]
[-2-----2--2--2-2-2-----2--2--2-2-2-----2--2--2-2-2-----2-2-2-2-2]
[-2-----2--2--2-2-3-----3--3--3-3-2-----2--2--2-2-3-----3-3-3-3-3]
[----------------------------------------------------------------]


Chorus to Verse:
 Em          C            Em            C   
[--------------------------------------------------~~~~~]
[-----------------1-----1--1--1-1-----------------1~~~~~]
[--------------------------------------------------~~~~~]
[-2-----2--2--2-2-2-----2--2--2-2-2-----2--2--2-2-2~~~~~]
[-2-----2--2--2-2-3-----3--3--3-3-2-----2--2--2-2-3~~~~~]
[--------------------------------------------------~~~~~]
                                                        ^Feedback off.

Order:
Intro
Verse 11x 
Verse to Chorus
Chorus 5x
Chorus to Verse
Verse 7x
Verse to Chorus
Chorus 7x
Chorus to Verse
~~~~~~~~~~~~~~~~~~~~~~~~~~~~~~~~~~~~~~~~~~~~~~~~~~~~~~~~~~~~~~~~~~~~~~~~~~~
All the ones on  the Outcesticides are one of these three up here, enjoy.

Later.
            
Submit corrections

comments powered by Disqus
↑ Back to top | Nirvana Tabs for Something In The Way. Lyrics for acoustic guitar and electric guitar. Tablatures and chords are parodies/interpretations of the original songs. You may use it for private study, scholarship, research or language learning purposes only