» » »

Nirvana, Sad Tabs (ver.1)

Artists:  A B C D E F G H I J K L M N O P Q R S T U V W X Y Z # 

Sad Tabs (ver.1)

Nirvana Tabs
Rating:
0/5 (0 votes)
Hard to play? Try these video lessons and learn fast.
                Nirvana:Sad
Tuned:E A D G B E 

I`m very very very sure this is right(and not difficult)

* Verse *
 
  And if you save you`re self...
E|-----------------------------------------------
B|-----------------------------------------------
G|---2---2--------2----2---------------0-----2---
D|--2---2----2---2----2----4---4------0-0---2----
A|-1---1---1--------------4---4---4--------0-----
E|-------------3---3-0---2---2---2---3-----------

*  Chorus *

  You`re in a laundry room...
E|----------------------------------
B|----------------------------------
G|-----4-----4----------4-----4-----
D|---4-----4-----4----4-----4-----4-
A|----------------------------------
E|-3-----3-----3----0-----0-----0---


Enjoy the rest of your live of NirvanA...
            

comments powered by Disqus
↑ Back to top | Nirvana Tabs for Sad. Lyrics for acoustic guitar and electric guitar. Tablatures and chords are parodies/interpretations of the original songs. You may use it for private study, scholarship, research or language learning purposes only