» » »

Nirvana, Sad Tabs (ver.3)

Artists:  A B C D E F G H I J K L M N O P Q R S T U V W X Y Z # 

Sad Tabs (ver.3)

Nirvana Tabs
Rating:
0/5 (0 votes)
Sad lessons Tabs too difficult? Try these video lessons and learn fast
                “Sad” (The slow, acoustic version of “Sappy”, w/o a solo) – Nirvana

Verse
------4------4----4--------4------4-------------------------------------
----4------4-------------4------4-----------2--------4------4--------5--
--2------2------2-------------------------2---2----4------4--------5----
--------------------0-3-------3------3--0--------2------2-----2--3------

----------------
----------------
----------------
----------7-----
--------7---7---
---3--5---------   Play 4 times


Chorus
-------------------|--------------|--------------------|
-------------------|--------------|--------------------|
------4-----4-----4|-------4-----4|--------------------|
----4-----4--------|-----4-----4--|------2-----2-----2-|
--2-----2-----2----|--------------|----2-----2-----2---|
-------------------|-0-3-----3----|3-0-----0-----0-----|
Riff A ^               Riff B^       Riff C^

Play Riff A once, 
then Riff B, Riff C, Riff B, Riff C, Riff B, riff C, Riff B, 
then play an F#5 power chord (244xxx) and let it ring.

This song has 3 verses and 3 choruses.  Enjoy.
            

comments powered by Disqus
↑ Back to top | Nirvana Tabs for Sad. Lyrics for acoustic guitar and electric guitar. Tablatures and chords are parodies/interpretations of the original songs. You may use it for private study, scholarship, research or language learning purposes only