» » »

Sad Tabs (ver.2)

Artists:  A B C D E F G H I J K L M N O P Q R S T U V W X Y Z # 

Sad Tabs (ver.2)

Nirvana
Rating:
0/5 (0 votes)

Hard to play? Try these video lessons and learn fast.
                This is the 100% correct version of sad, the acoustic version of sappy, a.k.a verse chorus verse:
Standard Tuning (EADGBe)

Verse:

E|----------------------------------------------------]
B|----------------------------------------------------]
G|---4---4--------4-----4-------------------0------2--]
D|--4---4---4---4------4-0----4----4-------0-0----2-0-]
A|-2---2---2----------------4----4----4---------0-----]
E|-------------3---3-0-----2----2----2---3------------]

Then the Chorus:
[You’re in a laundry Room….]
E|----------------------------------]
B|----------------------------------]
G|-----4-----4----------4-----4-----]
D|---4-----4-----4----4-----4-----4-]
A|----------------------------------]
E|-3-----3-----3----0-----0-----0---]
            
Hard to play? Try these video lessons and learn fast. | Correct




comments powered by Disqus
↑ Back to top | Tablatures and chords are parodies/interpretations of the original songs. You may use it for private study, scholarship, research or language learning purposes only