» » »

Ne-Yo, Together Tabs (ver.1)

Artists:  A B C D E F G H I J K L M N O P Q R S T U V W X Y Z # 

Together Tabs (ver.1)

Ne-Yo Tabs
Rating:
0/5 (0 votes)
Together lessons Tabs too difficult? Try these video lessons and learn fast
                (Intro)
Tuning: Standard

This is just the intro i haven't finished the chords for the whole song but
i guess for the Verses and Chorus the chords are: A Bm E F#m E A. Not sure
about the bridge all I know is that it starts with a C#m. haha. I would 
appreciate if anyone can share me the chords/tab for the whole song.

e|-------------0------------------------------------------|
B|-----------0---3-2-0----------0-3-3-2-0-2---------------|
G|----2----2-----------2------2-------------2-------------| 
D|-------2---------------2--2-----------------------------|
A|--------------------------------------------------------|
E|--------------------------------------------------------|

e|------------0-------------------------------------------|
B|----------0---3-2-0---0---------------0-----0-----------|
G|--------2-----------2------2--2---1-2---2-1---2---------| 
D|------2-------------------------2-----------------------|
A|--------------------------------------------------------|
E|--------------------------------------------------------|

This pretty much goes for the intro, verse and chorus. Enjoy! XD
            

comments powered by Disqus
↑ Back to top | Ne-Yo Tabs for Together. Lyrics for acoustic guitar and electric guitar. Tablatures and chords are parodies/interpretations of the original songs. You may use it for private study, scholarship, research or language learning purposes only