» » »

So Sick Tabs (ver.1)

Artists:  A B C D E F G H I J K L M N O P Q R S T U V W X Y Z # 

So Sick Tabs (ver.1)

Ne-Yo
Rating:
4/5 (5 votes)

Hard to play? Try these video lessons and learn fast.
                So Sick/original by Ne-Yo/transcribed acoustically by Passion

aim-theBROWNcareBEAR

i dont know if this is exatcly what he plays but it sounds pretty much the same and is 
to build off of. enjoy...

tunning: standard

into/verses/pre-chorus/chorus
E-------------|------6----|-------------|-------------|
B--------6----|-----7--7--|--------7----|-----6----6--|
G-------6--6--|----6------|-------6--6--|----6----6---|
D------8------|-----------|----=-8------|---6----6----|
A--5/6--------|--4--------|--5/6--------|--4----5-----|
E-------------|-----------|-------------|-------------|

the X4X676 part can also be played as
E--------------|
B--------11----|
G------11--11--| whichever is easier
D----11--------|
A--------------|
E--9-----------|

ending of intro/verses/pre-chorus/chorus
E-----------|
B---6h7-----|
G------6----| repeat as many times as needed
D-----------|
A-----------|
E-----------|

bridge: "leave me alone..."
just play around with these two chords
E-----|--6--|
B--6--|--7--|
G--6--|--6--|
D--6--|--8--|
A--4--|--6--|
E-----|-----|
im not really sure what chord he ends the bridge on but it sounds like a D#m7 or 
you try to figure it out

that's pretty much it. just repetition of the first part with variations of how it's 
possible. hope this helped those who wanted to learn the song...

comments? corrections? feel free to drop a verse.
            
Hard to play? Try these video lessons and learn fast. | Correct




comments powered by Disqus
↑ Back to top | Tablatures and chords are parodies/interpretations of the original songs. You may use it for private study, scholarship, research or language learning purposes only