>
 >
Because Of You

Because Of You Guitar Tabs

Ne-Yo - Because Of You chords, tabs, tablatures, lyrics

Guitar lessons | Add/correct | Request | Top 50 tabs Artists:  A B C D E F G H I J K L M N O P Q R S T U V W X Y Z 0-9

Because Of You Guitar Tabs – Ne-Yo

CD, Sheet music, Poster

Do you like Because Of You? Share with your friends now
ChordsChords v2TabsTabs v2Tabs v3Tabs v4Ukulele
Standard Tuning
Capo 3rd Fret

This is the tab for the harp instrument played throughout the song. A capo on the 3rd
is required. The bridge may sound a little funky if it's played without the track
it. Maybe someone could come up with chords so that it would be a litte more 
for playing solo.

Intro
e----3--1--0-----------------3--1--0-----------------3--1--0-----|
B-1-----------1-----------1-----------0-----------1-----------3--|
G----------------------2-----------------------2-----------------|
D-------------------3-----------------------2--------------------|
A----------------3-----------------------0-----------------------|
E----------------------------------------------------------------|

e--------------3-----------------3-------------------------------|
B-------1--3--------------1--3-----------------------------------|
G----------------------------------------------------------------|
D----2-----------------2-----------------------------------------|
A-0-----------------0--------------------------------------------|
E----------------------------------------------------------------|

e-------------------------------3--1--0---------------|
B----------1-----------------1-----------1--1---3-----|
G-------2------0h2--------2-----------------2---4---2-|
D----3-----------------3--------------------3---5---3-|
A-0-----------------3-----------------------3---5---3-|
E-----------------------------------------------------|

e----3--1--0----|
B-1-----------1-|
G---------------|
D---------------|
A---------------|
E---------------|

Verse
e-------------3--1--0-----------------3--1--0-----|
B----------1-----------0-----------1-----------3--|
G-------2-----------------------2-----------------|
D----3-----------------------2--------------------|
A-3-----------------------0-----------------------|
E-------------------------------------------------|
    Want to…
e--------------3----------------3--1--0--------------------------|
B-------1--3-----------------1-----------1-----------------------|
G-------------------------2--------------------------------------|
D----2-----------------2-----------------------------------------|
A-0-----------------0--------------------------------------------|
E----------------------------------------------------------------|

e-------------3--1--0-----------------3--1--0--------------------|
B----------1-----------0-----------1-----------3-----------------|
G-------2-----------------------2--------------------------------|
D----3-----------------------2-----------------------------------|
A-3-----------------------0--------------------------------------|
E----------------------------------------------------------------|

e-------------3------------3--1--0-------------------------------|
B-------1--3-------1----1-----------1----------------------------|
G------------------2---------------------------------------------|
D----2-------------3---------------------------------------------|
A-0----------------3---------------------------------------------|
E----------------------------------------------------------------|

Refrain
e-------------3--1--0-----------------3--1--0-----|
B----------1-----------0-----------1-----------3--|
G-------2-----------------------2-----------------|
D----3-----------------------2--------------------|
A-3-----------------------0-----------------------|
E-------------------------------------------------|
   I got a problem…
e--------------3----------------3--1--0--------------------------|
B-------1--3-----------------1-----------1-----------------------|
G-------------------------2--------------------------------------|
D----2-----------------2-----------------------------------------|
A-0-----------------0--------------------------------------------|
E----------------------------------------------------------------|

e-------------3--1--0-----------------3--1--0--------------------|
B----------1-----------0-----------1-----------3-----------------|
G-------2-----------------------2--------------------------------|
D----3-----------------------2-----------------------------------|
A-3-----------------------0--------------------------------------|
E----------------------------------------------------------------|
*Pause*
e----3--1--0----|
B-1-----------1-|
G---------------|
D---------------|
A---------------|
E---------------|
and I know…
e-------------3--1--0-----------------3--1--0-----|
B----------1-----------0-----------1-----------3--|
G-------2-----------------------2-----------------|
D----3-----------------------2--------------------|
A-3-----------------------0-----------------------|
E-------------------------------------------------|

e--------------3----------------3--1--0--------------------------|
B-------1--3-----------------1-----------1-----------------------|
G-------------------------2--------------------------------------|
D----2-----------------2-----------------------------------------|
A-0-----------------0--------------------------------------------|
E----------------------------------------------------------------|

e-------------3--1--0-----------------3--1--0--------------------|
B----------1-----------0-----------1-----------3-----------------|
G-------2-----------------------2--------------------------------|
D----3-----------------------2-----------------------------------|
A-3-----------------------0--------------------------------------|
E----------------------------------------------------------------|

e-------------3--------------------------------------------------|
B-------1--3-------1---------------------------------------------|
G------------------2---------------------------------------------|
D----2-------------3---------------------------------------------|
A-0----------------3---------------------------------------------|
E----------------------------------------------------------------|

Chorus
e----3--1--0----|
B-1-----------1-|
G---------------|
D---------------|
A---------------|
E---------------|
    because of you…
e-------------3--1--0-----------------3--1--0-----|
B----------1-----------0-----------1-----------3--|
G-------2-----------------------2-----------------|
D----3-----------------------2--------------------|
A-3-----------------------0-----------------------|
E-------------------------------------------------|

e--------------3----------------3--1--0--------------------------|
B-------1--3-----------------1-----------1-----------------------|
G-------------------------2--------------------------------------|
D----2-----------------2-----------------------------------------|
A-0-----------------0--------------------------------------------|
E----------------------------------------------------------------|

e-------------3--1--0-----------------3--1--0-----|
B----------1-----------0-----------1-----------3--|
G-------2-----------------------2-----------------|
D----3-----------------------2--------------------|
A-3-----------------------0-----------------------|
E-------------------------------------------------|

e----------------------------------------------------------------|
B-1---3-------------1----3---------------------------------------|
G-2---4----2--------2----4----2----------------------------------|
D-3---5----3--------3----5----3----------------------------------|
A-3---5----3--------3----5----3----------------------------------|
E----------------------------------------------------------------|

e----3--1--0----|
B-1-----------1-|
G---------------|
D---------------|
A---------------|
E---------------|

Verse
e-------------3--1--0-----------------3--1--0-----|
B----------1-----------0-----------1-----------3--|
G-------2-----------------------2-----------------|
D----3-----------------------2--------------------|
A-3-----------------------0-----------------------|
E-------------------------------------------------|
    Think of it…
e--------------3----------------3--1--0--------------------------|
B-------1--3-----------------1-----------1-----------------------|
G-------------------------2--------------------------------------|
D----2-----------------2-----------------------------------------|
A-0-----------------0--------------------------------------------|
E----------------------------------------------------------------|

e-------------3--1--0-----------------3--1--0--------------------|
B----------1-----------0-----------1-----------3-----------------|
G-------2-----------------------2--------------------------------|
D----3-----------------------2-----------------------------------|
A-3-----------------------0--------------------------------------|
E----------------------------------------------------------------|

e-------------3------------3--1--0-------------------------------|
B-------1--3-------1----1-----------1----------------------------|
G------------------2---------------------------------------------|
D----2-------------3---------------------------------------------|
A-0----------------3---------------------------------------------|
E----------------------------------------------------------------|

Refrain
e-------------3--1--0-----------------3--1--0-----|
B----------1-----------0-----------1-----------3--|
G-------2-----------------------2-----------------|
D----3-----------------------2--------------------|
A-3-----------------------0-----------------------|
E-------------------------------------------------|
  I got a…
e--------------3----------------3--1--0--------------------------|
B-------1--3-----------------1-----------1-----------------------|
G-------------------------2--------------------------------------|
D----2-----------------2-----------------------------------------|
A-0-----------------0--------------------------------------------|
E----------------------------------------------------------------|

e-------------3--1--0-----------------3--1--0--------------------|
B----------1-----------0-----------1-----------3-----------------|
G-------2-----------------------2--------------------------------|
D----3-----------------------2-----------------------------------|
A-3-----------------------0--------------------------------------|
E----------------------------------------------------------------|
*Pause*
e----3--1--0----|
B-1-----------1-|
G---------------|
D---------------|
A---------------|
E---------------|
  know this much…
e-------------3--1--0-----------------3--1--0-----|
B----------1-----------0-----------1-----------3--|
G-------2-----------------------2-----------------|
D----3-----------------------2--------------------|
A-3-----------------------0-----------------------|
E-------------------------------------------------|

e--------------3----------------3--1--0--------------------------|
B-------1--3-----------------1-----------1-----------------------|
G-------------------------2--------------------------------------|
D----2-----------------2-----------------------------------------|
A-0-----------------0--------------------------------------------|
E----------------------------------------------------------------|

e-------------3--1--0-----------------3--1--0--------------------|
B----------1-----------0-----------1-----------3-----------------|
G-------2-----------------------2--------------------------------|
D----3-----------------------2-----------------------------------|
A-3-----------------------0--------------------------------------|
E----------------------------------------------------------------|

e-------------3--------------------------------------------------|
B-------1--3-------1---------------------------------------------|
G------------------2---------------------------------------------|
D----2-------------3---------------------------------------------|
A-0----------------3---------------------------------------------|
E----------------------------------------------------------------|

Chorus
e----3--1--0----|
B-1-----------1-|
G---------------|
D---------------|
A---------------|
E---------------|
  because of…
e-------------3--1--0-----------------3--1--0-----|
B----------1-----------0-----------1-----------3--|
G-------2-----------------------2-----------------|
D----3-----------------------2--------------------|
A-3-----------------------0-----------------------|
E-------------------------------------------------|

e--------------3----------------3--1--0--------------------------|
B-------1--3-----------------1-----------1-----------------------|
G-------------------------2--------------------------------------|
D----2-----------------2-----------------------------------------|
A-0-----------------0--------------------------------------------|
E----------------------------------------------------------------|

e-------------3--1--0-----------------3--1--0-----|
B----------1-----------0-----------1-----------3--|
G-------2-----------------------2-----------------|
D----3-----------------------2--------------------|
A-3-----------------------0-----------------------|
E-------------------------------------------------|

e----------------------------------------------------------------|
B-1---3-------------1----3---------------------------------------|
G-2---4----2--------2----4----2----------------------------------|
D-3---5----3--------3----5----3----------------------------------|
A-3---5----3--------3----5----3----------------------------------|
E----------------------------------------------------------------|

Bridge
e-1------------|
B------3--1----|
G--------------|
D--------------|
A--------------|
E--------------|
  Doubt…
e-1-----------------1--------------------------------------------|
B------3--1---1--3-----------------------------------------------|
G----------------------------------------------------------------|
D----------------------------------------------------------------|
A----------------------------------------------------------------|
E----------------------------------------------------------------|
 Out…
e-3------------|
B------3--1----|
G--------------|
D--------------|
A--------------|
E--------------|
 Doubt…
e-1------------|
B------3--1----|
G--------------|
D--------------|
A--------------|
E--------------|
 Out…

Outro
e----3--1--0----|
B-------------1-|
G---------------|
D---------------|
A---------------|
E---------------|

e-------------3--1--0-----------------3--1--0-----|
B----------1-----------0-----------1-----------3--|
G-------2-----------------------2-----------------|
D----3-----------------------2--------------------|
A-3-----------------------0-----------------------|
E-------------------------------------------------|

e--------------3----------------3--1--0--------------------------|
B-------1--3-----------------1-----------1-----------------------|
G-------------------------2--------------------------------------|
D----2-----------------2-----------------------------------------|
A-0-----------------0--------------------------------------------|
E----------------------------------------------------------------|

e-------------3--1--0-----------------3--1--0-----|
B----------1-----------0-----------1-----------3--|
G-------2-----------------------2-----------------|
D----3-----------------------2--------------------|
A-3-----------------------0-----------------------|
E-------------------------------------------------|

e-------------------------------------3--1--0--------------------|
B-1---3-------------1----3---------1-----------1--1--------------|
G-2---4----2--------2----4----2-------------------2----4---2-----|
D-3---5----3--------3----5----3-------------------3----5---3-----|
A-3---5----3--------3----5----3-------------------3----5---3-----|
E----------------------------------------------------------------|





Comments


Popular Ne-Yo tabs & chords
Stop This World Chords
Make It Work Tabs
Over My Head Tabs
Sexy Love 1 Tabs
So Sick 6 Tabs
Together Intro Tabs
Go On Girl Ukulele
Lonely Again Ukulele
Never Knew I Needed Ukulele
Numb Ukulele


Song lyrics



↑ Back to top | Tablatures and chords are parodies/interpretations of the original songs. You may use it for private study, scholarship, research or language learning purposes only
© 2014 AZChords.com Contact us | Privacy policy | DMCA | Add/correct tabs | Request tabs | Top 50 tabs