» » »

So Sick Bass tabs (ver.2)

Artists:  A B C D E F G H I J K L M N O P Q R S T U V W X Y Z # 

So Sick Bass tabs (ver.2)

Ne-Yo
Rating:
0/5 (0 votes)

Hard to play? Try these video lessons and learn fast.
                                                                               APRIL,07,2009

Tittle: SO SICK
Type: Bass Tab

          this is my second tab please rate 99% accurate


Tuning: (Standard)

INTRO:

G|---------------| |------------------|
D|---------------| |--------x(9)------|
A|--6--------4---| |-(2)--------------|
E|-----7---4-----| |------------------|

VERSE 1:

G|---------------|     |-------------------|
D|---------------|     |-------------------|
A|--6--------4---| X 3 |-22222222222222222-|
E|-----7---4-----|     |-------------------|

CHORUS:

G|--------------------|     |-------------------|
D|--------------------|     |-------------------|
A|--6-6---------4-4---| X 3 |-22222222222222222-|
E|------7-7--4-4------|     |-------------------|

VERSE 2:


G|--------------------|     |-------------------|
D|--------------------|     |-------------------|
A|--6-6---------4-4---| X 3 |-22222222222222222-|
E|------7-7--4-4------|     |-------------------|

BRIDGE:

G|--------------------|
D|--------------------|
A|--4-4/6-------------|
E|------------7-7-467-|

G|--------------------|
D|--------------------|
A|--4-4/6\4-----------|
E|------------7-7-/---|

G|-----------------------|
D|-----------------------|
A|--4-5/7--------7-9/11--|
E|------------7-9-/------|

G|--------------------|
D|--------------------|
A|--4-4---------------|
E|------------7-7-----|

CHORUS:

G|--------------------|     |-------------------|
D|--------------------|     |-------------------|
A|--6-6---------4-4---| X 3 |-22222222222222222-|
E|------7-7--4-4------|     |-------------------|

if ever there are error on my tab please txt me
this is my no. 09109177342 please please please RATE.
hi to all ANCHORIANS in HCDC Chapter long live ALPHA MU PHI
budz and sai ^,.,^  (APRIL 07 2009) PHAYATSKIE ^^
            
Hard to play? Try these video lessons and learn fast. | Correct




comments powered by Disqus
↑ Back to top | Tablatures and chords are parodies/interpretations of the original songs. You may use it for private study, scholarship, research or language learning purposes only