» » »

Ne-Yo, Go On Girl Tabs (ver.4)

Artists:  A B C D E F G H I J K L M N O P Q R S T U V W X Y Z # 

Go On Girl Tabs (ver.4)

Ne-Yo Tabs
Rating:
5/5 (5 votes)
Go On Girl lessons Tabs too difficult? Try these video lessons and learn fast
                Hi there Ne-yo's fans!!!i think this tabs and chords sound perfect..so just play
 the song and enjoy it.

intro( you play it till "i was inviting.." )

----------0------------------0------------------0-----------------0---------|
--------0---0---0----------0---0---0----------0---0---0---------0---0---0---|
------2-------2----------2-------2----------2-------2---------2-------2-----|
----------------------------------------------------------------------------|
--0------------------2------------------4-----------------4-----------------|
----------------------------------------------------------------------------|

----------0------------------0------------------0-----------------0---------|
--------0---0---0----------0---0---0----------0---0---0---------0---0---0---|
------2-------2----------2-------2----------2-------2---------2-------2-----|
----------------------------------------------------------------------------|
--0-------------------------------------2-----------------2-----------------|
---------------------4------------------------------------------------------|

I can't get it back, but
I don't want it back, I
Realized that,
She don't know how to act
Never been a dumb dude
No I'm not dense
I Just had a slight lack
Of common sense
I was the good guy
She was the bad girl
I'm thinking one girl
She thinking me, earl James and jimmy
Yep she had plenty
But love for me, she didn't have any

Pre-chorse
         A5      B5     C#5 
I was inviting, her into my heart
                 A5        B5        C#5
But she was out riding in some other man's car
           A5            B5          C#5
She was my night time, thought I was her star
             A5                  E
Guess I was wrong, but see I'm strong
           C#5
Wont take long for me to move on

[Hook:]
  A#                B5              C#5
Please don't worry bout me I'm fine
(Please don't worry bout me I'm fine)
 A5                  B5           C#5
Only gonna play the fool one time
(Only gonna play the fool one time)
 A5         E
Trust me when I say
 C#5
That I'll be OK
   A5
Go on girl
(Go on girl)
   E
Go on girl
(Go on girl)
   C#5
Go on girl

you play intro again...

[V2:]

you can play it just like the V1. with tabs.sounds good.

I can't get it back, but
I don't want it back, I
Realized that,
She don't know how to act
Tried to settle down and look what I get
Thought it was my time, but I guess not yet
She at the bar getting drinks from many men
I'm in the house, thinking shes with her girlfriends
Trust not knowing, truly not knowing
I look back now like, man, I was open

         A5      B5     C#5 
I was inviting, her into my heart
                 A5        B5        C#5
But she was out riding in some other man's car
           A5            B5          C#5
She was my night time, thought I was her star
             A5                  E
Guess I was wrong, but see I'm strong
           C#5
Wont take long for me to move on


[Hook:]
  A#                B5              C#5
Please don't worry bout me I'm fine
(Please don't worry bout me I'm fine)
 A5                  B5           C#5
Only gonna play the fool one time
(Only gonna play the fool one time)
 A5         E
Trust me when I say
 C#5
That I'll be OK
   A5
Go on girl
(Go on girl)
   E
Go on girl
(Go on girl)
   C#5
Go on girl

[Bridge]

A5                               C#5
          The mistake I made is clear
          (we never should've been together)
A5                                C#5
          Thats the reason you're not here
          (I know that I can do much better)
A5                           C#5 
          Not a single salty tear
                               A5
          Not a feeling in my chest
               E               C#5  
          Baby I'm feeling no stress
          I'm too fly to be depressed
   

----------0------------------0------------------0-----------------0---------|
--------0---0---0----------0---0---0----------0---0---0---------0---0---0---|
------2-------2----------2-------2----------2-------2---------2-------2-----|
----------------------------------------------------------------------------|
--0------------------2------------------4-----------------4-----------------|
----------------------------------------------------------------------------|

----------0------------------0------------------0-----------------0---------|
--------0---0---0----------0---0---0----------0---0---0---------0---0---0---|
------2-------2----------2-------2----------2-------2---------2-------2-----|
----------------------------------------------------------------------------|
--0-------------------------------------2-----------------2-----------------|
---------------------4------------------------------------------------------|


[Hook:]
  A#                B5              C#5
Please don't worry bout me I'm fine
(Please don't worry bout me I'm fine)
 A5                  B5           C#5
Only gonna play the fool one time
(Only gonna play the fool one time)
 A5         E
Trust me when I say
 C#5
That I'll be OK
   A5
Go on girl
(Go on girl)
   E
Go on girl
(Go on girl)
   C#5
Go on girl

   A5
Go on girl
(Go on girl)
   E
Go on girl
(Go on girl)
   C#5
Go on girl

I'll be fine...

                                                                made by igot
            
Submit corrections

comments powered by Disqus
↑ Back to top | Ne-Yo Tabs for Go On Girl. Lyrics for acoustic guitar and electric guitar. Tablatures and chords are parodies/interpretations of the original songs. You may use it for private study, scholarship, research or language learning purposes only