>
 >
Go On Girl

Go On Girl Guitar Tabs

Ne-Yo - Go On Girl chords, tabs, tablatures, lyrics

Guitar lessons | Add/correct | Request | Top 50 tabs Artists:  A B C D E F G H I J K L M N O P Q R S T U V W X Y Z 0-9

Go On Girl Guitar Tabs – Ne-Yo

CD, Sheet music, Poster

Do you like Go On Girl? Share with your friends now
ChordsTabsTabs v2Tabs v3Ukulele
Chords:
Aadd9:   577600
Badd4:   799800
Dbm9add2:979800
Abm#5:   466400
F#m7add4:244200
Bsus:    x24400

[Intro]

     Aadd9          Badd4         Dbm9add2
e|---------0-------------0------------0---------------0---------------|
B|----0------0------0------0-----0------0--------0-------0------------|
G|-------6-----6------6------6------8-----8---8-----8--------8--------|
D|--------------------------------------------------------------------| (2)
A|--------------------------------------------------------------------|
E|----5------------7-------------9------------------------------------|
     Aadd9         Abm#5          F#m7add4
e|---------0--------------0-------------0---------------0---------------|
B|----0------0------0-------0-----0-------0--------0-------0------------|
G|------6------6------4-------4------2-------2--2-----2--------2--------|
D|----------------------------------------------------------------------|
A|----------------------------------------------------------------------|
E|----5-------------4-------------2-------------------------------------|
   ooh  ohh

     Aadd9          Abm#5           Bsus
e|---------0--------------0-------------0---------------------------|
B|---0-------0------0-------0------0------0--------0----------------|
G|------6------6------4-------4------4-------4----------------------|
D|------------------------------------------------------------------|
A|---------------------------------2--------------------------------|
E|---5--------------4-----------------------------------------------|

       Aadd9
I cant get it back, but
       Badd4
I dont want it back, i
   Dbm9add2
Realized that,

She dont know how to act
             Aadd9
Never been a dumb dude
           Badd4
No im not dense
              Dbm9add2
I Just had a slight lack

Of common sense
           Aadd9
I was the good guy
            Abm#5
She was the bad girl
             F#m7add4
Im thinking one girl
                                Aadd9
She thinking me, earl james and jimmy
            Abm#5
Yep she had plenty
             Bsus
But love for me, she didnt have any


      Aadd9     Badd4       Dbm9add2
I was inviting, her into my heart
                Aadd9      Badd4      Dbm9add2
But she was out riding in some other man's car
            Aadd9       Abm#5       F#m7add4
She was my night time, thought I was her star
            Aadd9             Abm#5
Guess I was wrong, but see im strong
              Bsus
Wont take me long for me to move on

[Chorus]

Aadd9              Badd4
Please dont worry bout me im fine
Dbm9add2
(Please dont worry bout me im fine)
Aadd9               Badd4
Only gonna play the fool one time
Dbm9add2
Only gonna play the fool one time)
Aadd9    Gm#5
Trust me when I say
F#m7add4
That i'll be ok
   Aadd9
Go on girl
  Abm#5
Go on girl
   Bsus
Go on girl

       Aadd9
I cant get it back, but
        Badd4
I dont want it back, i
   Dbm9add2
Realized that,

She dont know how to act
                Aadd9                Badd4
Tried to settle down and look what I get
                  Dbm7add2
Thought it was my time, but I guess not yet
           Aadd9                  Abm#5
She at the bar getting drinks from many men
          F#m7add4
Im in the house, thinking she's with her girlfriends
           Aadd9              Abm#5
Trust not knowing, truly not knowing
           Bsus
I look back now like, man, I was open


       Aadd9    Badd4    Dbm9add2
I was inviting, her into my heart
                Aadd9      Badd4      Dbm9add2
But she was out riding in some other man's car
            Aadd9       Abm#5       F#m7add4
She was my night time, thought I was her star
            Aadd9             Abm#5
Guess I was wrong, but see im strong
              Bsus
Won't take me long for me to move on

[Chorus]

Aadd9              Badd4
Please dont worry bout me im fine
Dbm7add2
(Please dont worry bout me im fine)
Aadd9               Badd4
Only gonna play the fool one time
Dbm9add2
Only gonna play the fool one time)
Aadd9    Gm#5
Trust me when I say
F#m7add4
That i'll be ok
   Aadd9
Go on girl
  Abm#5
Go on girl
   Bsus
Go on girl


[Bridge]

F#m7add4                 Bsus
   The mistake i made is clear

(we never shoulda been together)
F#m7add4                      Bsus
  Thats the reason you're not here

(I know that I can do much better)
F#m7add4              Bsus
   Not a single salty tear
                    Aadd9
Not a feeling in my chest
     Abm#5         Bsus
Baby im feeling no stress
                   Aadd9   Badd4  Dbm9add2
Im too fly to be depressed                 go on girl
   Aadd9    Badd4   Dbm9add2
Go on Girl         mmmm       go on girl
   Aadd9   Abm#5  F#m7add4  Aadd9  Abm#5  Bsus
Go on Girl       oh oh

Chorus (2)...

  Aadd9       Abm#5        Bsus
go on girl  go on girl  go on girl

I'll be fine





Comments


Popular Ne-Yo tabs & chords
Closer Chords
Mad Chords
Make It Work Chords
One In A Million Chords
Closer 3 Tabs
It's You Tabs
Sexy Love Tabs
Beautiful Monster 2 Ukulele
Let Me Love You Ukulele
Stop This World Ukulele


Song lyrics



↑ Back to top | Tablatures and chords are parodies/interpretations of the original songs. You may use it for private study, scholarship, research or language learning purposes only
© 2014 AZChords.com Contact us | Privacy policy | DMCA | Add/correct tabs | Request tabs | Top 50 tabs