» » »

I Need Something Tabs (ver.3)

Artists:  A B C D E F G H I J K L M N O P Q R S T U V W X Y Z # 

I Need Something Tabs (ver.3)

Newton Faulkner
Rating:
5/5 (5 votes)

Hard to play? Try these video lessons and learn fast.
                I need something - Newton Faulkner



This is just a draft, I will update it later with the finished version


Tuning- DGDGAD

D||| ----5p0h4p0h2h4-5p0h4p0h4----------5p0h4p0h2-----5p0h4p0h2h4p2p0--|
A||| ------------------------------------------------------------------|
G|||°----------------------------7/9\7-*let ring*-/14-*let ring*-------|
D|||°------------------------------------------------------------------|
G||| ------------------------------------------------------------------|
D||| -0--*let ring*----------------------------------------------------|


                                       tap harmonics with right hand


D|------5p0h4p0h2h40--5p0h4p2h4p2p0------<12>--------------------------------<12>------|
A|----------------------------------------------<12>-------------------------<12>------|
G|---------------------------------------------------------------------------------°---|
D|-----------------------------------------------------0---------------------------°---|
G|-0~~*letring*----------------------------------------------------------0-------------|
D|-------------------------------------------------------------------------------------|


 1    I need something to believe in        'cause I don't believe in myself
 2    I'm sick and tired of getting nowhere    I guess it'll all work out         [1st time]
D|-------------------------------------------------------------------------------|-<12>--|
A|-------------------------------------------------------------------------------|-<12>--|
G|------------------------------------------0------------------------------------|-------|
D|-------------------------------------------------------------------------------|-------|
G|------------------------------------------0------------------------------------|-------|
D|-0---*letring*----------------------------------------------------------------|--------|


    [2nd time]

D|----------------------------------------|-------0----|
A|----------------------------------------|-2/12-----0-|
G|-----6----6--------2----4--------4----4-|------------|
D|-----4----4--------0----0--------0----0-|------------|
G|-/4----4---------0---0--------0----0----|------------|
D|----------------------------------------|------------|
            
Hard to play? Try these video lessons and learn fast. | Correct




comments powered by Disqus
↑ Back to top | Tablatures and chords are parodies/interpretations of the original songs. You may use it for private study, scholarship, research or language learning purposes only