» » »

I Need Something Tabs (ver.2)

Artists:  A B C D E F G H I J K L M N O P Q R S T U V W X Y Z # 

I Need Something Tabs (ver.2)

Newton Faulkner
Rating:
5/5 (10 votes)

Hard to play? Try these video lessons and learn fast.
                Newton Faulkner - I Need Something

When viewing the tab it kept screwing up the lyrcs and playing sync i had going, i hope 
doesn't do this when i submit :/


Notes on difficult parts:

At the end of the intro where he plays the harmonics he taps them on the upper bar of 
12th fret (12th/13th), this can be done with practice and bruising of the bone in your finger.

Also the 0 on the G# is not a harmonic (at the end of the intro), he plucks this with 
fretting hand, give it a go, it's pretty clear at two times during the video at the start 
at the end.

eb|--0h5p0h4p0h2h4p0h5p0h4p0h4~--------h5p0h4p0h2-----h5p0h4p0h2h4p2p0--------|
A#|---------------------------------------------------------------------------|
G#|----------------------------h7/9/7~~~~~~~~~~~~/14~~~~~~~~~-----------------|
Eb|--0------------------------------------------------------------------------|
G#|---------------------------------------------------------------------------|
Eb|--0------------------------------------------------------------------------|

                                        T    T               I need something
eb|---p5p0h4p0h2h4p0h5p0h4p0h2h4p2p0-------p2-----0---------------------------|
A#|-----------------------------------------------0---------------------------|
G#|--0-----------------------------------0-----0------------------------------|
Eb|------------------------------------------0--------------------------------|
G#|--0------------------------------------------------------------------------|
Eb|------------------------------------------------------0--------------------|

   to believe in,   cause i don’t believe in myself
eb|-------------------------------------------------0-------------------------|
A#|-------------------------------------------------0-------------------------|
G#|---------------------------------------------------------------------------|
Eb|---------------0-----------------------------------------------------------|
G#|---------------0-----------------------------------------------------------|
Eb|---------------------------------------------------------------------------|

       And I’m sick and tired,  of getting nowhere   guess it'll all work out
eb|---------------------------------------------------------------------------|
A#|---------------------------------------------------------------------------|
G#|------------------------------------------------0--------------------------|
Eb|---------------------------------------------------------------------------|
G#|------------------------------------------------0--------------------------|
Eb|--0------------------------------------------------------------------------|

           And I don’t mind            anymore
eb|---------------------------------------------------------------------------|
A#|--(4)-4—(4)---------(0)-0----—---------(0)-0—-(0)-0-----------0------------|
G#|---6--6-(6)----------2--4---------------2--2---2--2--2----/7----0----------|
Eb|---4--4-(4)----------0--0---------------0--0---0--0------------------------|
G#|--4--4--------------0--0---------------------------------------------------|X2
Eb|---------------------------------------0--0---0--0-------------------------|

         And I need someone                 to put my trust in
eb|--0h5p0h4p0h2h4p0h5p0h4p0h4~--------h5p0h4p0h2-----h5p0h4p0h2h4p2p0--------|
A#|---------------------------------------------------------------------------|
G#|----------------------------h7/9/7~~~~~~~~~~~~/14~~~~~~~~~-----------------|
Eb|--0------------------------------------------------------------------------|
G#|---------------------------------------------------------------------------|
Eb|--0------------------------------------------------------------------------|
                                          Myself
     ‘cause I aint trusting              T   T
eb|---p5p0h4p0h2h4p0h5p0h4p0h2h4p2p0-------p2------0--------------------------|
A#|------------------------------------------------0--------------------------|
G#|--0-----------------------------------0-----0------------------------------|
Eb|------------------------------------------0--------------------------------|
G#|--0------------------------------------------------------------------------|
Eb|---------------------------------------------------------------------------|

      And I'm scared of failure,               so scared of success
eb|--0h5p0h4p0h2h4p0h5p0h4p0h4~--------h5p0h4p0h2-----h5p0h4p0h2h4p2p0--------|
A#|---------------------------------------------------------------------------|
G#|---------------------------------------------------------------------------|
Eb|--0-------------------------h7/9/7~~~~~~~~~~~~/14~~~~~~~~~-----------------|
G#|---------------------------------------------------------------------------|
Eb|--0------------------------------------------------------------------------|
                                           work
         guess it’ll all                 T   T
eb|---p5p0h4p0h2h4p0h5p0h4p0h2h4p2p0-------p2---------------------------------|
A#|---------------------------------------------------------------------------|
G#|--0-----------------------------------0-----0------------------------------|
Eb|------------------------------------------0--------------------------------|
G#|--0------------------------------------------------------------------------|
Eb|---------------------------------------------------------------------------|

    out    And I don’t mind                Anymore
eb|---------------------------------------------------------------------------|
A#|--(4)-4—(4)---------(0)-0-(0)—---------(0)-0—-(0)-0-----------0------------|
G#|---6--6-(6)----------2--4-(4)-----------2--2---2--2--2----/7----0----------|
Eb|---4--4-(4)----------0--0-(0)-----------0--0---0--0------------------------|
G#|--4--4--------------0--0---------------------------------------------------|
Eb|---------------------------------------0--0---0--0-------------------------|

        And I don’t mind                Anymore
eb|---------------------------------------0---0-0-0--0------------------------|
A#|--(4)-4—(4)---------(0)-0-(0)—---------0---0-0-0--5------------------------|
G#|---6--6-(6)----------2--4-(4)----------4---0-4-6--7------------------------|
Eb|---4--4-(4)----------0--0-(0)----------x---0-0-0--0------------------------|
G#|--4--4--------------0--0---------------2---x-x-x--x------------------------|
Eb|---------------------------------------0---5-5-5--5------------------------|
                                         (We can all strum )

       And I need something to believe in cause I don’t believe in my self
eb|------------------------------------------------------------------------0--|
A#|------------------------------------------------------------------------0--|
G#|---------------------------------------------------------------------------|
Eb|---------------------------------------------------------------------------|
G#|-------------------------------------0-------------------------------------|
Eb|--/12~~~~~~~~~~--------------12\-------------------------------------------|
   Lift off once you twelfth to leave the harmonic ringing, Hard?, you’ll do it

      And I'm scared of failure,               so scared of success
eb|--0h5p0h4p0h2h4p0h5p0h4p0h4~--------h5p0h4p0h2-----h5p0h4p0h2h4p2p0--------|
A#|---------------------------------------------------------------------------|
G#|---------------------------------------------------------------------------|
Eb|--0-------------------------h7/9/7~~~~~~~~~~~~/14~~~~~~~~~-----------------|
G#|---------------------------------------------------------------------------|
Eb|--0------------------------------------------------------------------------|

                                            work
         guess it’ll all                  T  T
eb|---p5p0h4p0h2h4p0h5p0h4p0h2h4p2p0-------p2---------------------------------|
A#|---------------------------------------------------------------------------|
G#|--0-----------------------------------0-----0------------------------------|
Eb|------------------------------------------0--------------------------------|
G#|--0------------------------------------------------------------------------|
Eb|---------------------------------------------------------------------------|


    out    And I don’t mind                Anymore
eb|---------------------------------------------------------------------------|
A#|--(4)-4—(4)---------(0)-0-(0)—---------(0)-0—-(0)-0-----------0------------|
G#|---6--6-(6)----------2--4-(4)-----------2--2---2--2--2----/7----0----------|
Eb|---4--4-(4)----------0--0-(0)-----------0--0---0--0------------------------|
G#|--4--4--------------0--0---------------------------------------------------|X2
Eb|---------------------------------------0--0---0--0-------------------------|


    And I don’t mind any more And I don’t mind any more oh yeah
eb|--0-----0-0-0--0-----------0-----0-0-0--0------------0-----0-0-0--0--------|
A#|--0-----0-0-0--5-----------0-----0-0-0--5------------0-----0-0-0--0--------|
G#|--x-----0-4-6--7-----------x-----0-4-6--7------------x-----0-4-6--7--------|
Eb|--4-----0-0-0--0-----------4-----0-0-0--0------------4-----0-0-0--0--------|
G#|--2-----x-x-x--x-----------2-----x-x-x--x------------2-----x-x-x--x--------|
Eb|--0-----5-5-5--5-----------0-----5-5-5--5------------0-----5-5-5--5--------|
   A bit hard but with good finger placement it can be done, watch him on the video

eb|--0h5p0h4p0h2h4p0h5p0h4p0h4~--------h5p0h4p0h2-----h5p0h4p0h2h4p2p0--------|
A#|---------------------------------------------------------------------------|
G#|----------------------------h7/9/7~~~~~~~~~~~~/14~~~~~~~~~-----------------|
Eb|--0------------------------------------------------------------------------|
G#|---------------------------------------------------------------------------|
Eb|--0------------------------------------------------------------------------|

                                        T    T
eb|---p5p0h4p0h2h4p0h5p0h4p0h2h4p2p0-------p2---------------------------------|
A#|---------------------------------------------------------------------------|
G#|--------------------------------------0------0~~~~~------------------------|
Eb|------------------------------------------0--------------------------------|
G#|---------------------------------------------------------------------------|
Eb|-/12~~~~~~~----------------------------------------------------------------|
  Again with the lifting off harmonic

~ let the note ring, hold it or keep fret open depending on what note you are            
             playing
/ slide up
/ slide down
T Tap with plucking hand

Many tabs use the same sort of legend and i'm sure you can find explanations

Thanks for taking a look and I hope it was clear. PLease rate what you think and add 
with corrections or all the little extras that he includes in the song.
            
Hard to play? Try these video lessons and learn fast. | Correct




comments powered by Disqus
↑ Back to top | Tablatures and chords are parodies/interpretations of the original songs. You may use it for private study, scholarship, research or language learning purposes only