» » »

Newton Faulkner, I Need Something Tabs (ver.1)

Artists:  A B C D E F G H I J K L M N O P Q R S T U V W X Y Z # 

I Need Something Tabs (ver.1)

Newton Faulkner Tabs
Rating:
4/5 (5 votes)
I Need Something lessons Tabs too difficult? Try these video lessons and learn fast
                --------------------------------------------------------------
-------------------------------------------------------------------------------

Tuning:DGDGAd

 Have made some improvements to the previous work which was an excellent effort, its 
me quite a long time (about 4 hours) and i reckon its about 97% right now.

 For the intro/verse try and hit the h5 and the h7 at the same time (see *) also when 
show you which hand is supposed to be doing what...

 (Intro)                       *               *
d|---p0h5p0h4p0h2h4p0h5p0h4p0h4h5----p0h5p0h4p0h2h4p0h5p0h4p0h2h4p2p0--------|
A|---------------------------------------------------------------------------|
G|-----------------------------h7/9/7~~~~~~~~~~~~~/14~~~~~~~~~---------------|
D|--0------------------------------------------------------------------------|
G|---------------------------------------------------------------------------|
D|--0------------------------------------------------------------------------|

                                        *  *      (1st Verse)I need something
d|---p0h5p0h4p0h2h4p0h5p0h4p0h2h4p2p0--h5-p0----+0---------------------------|
A|-------------------------------------------p0-+0---------------------------|
G|-------------------------------------+0------------------------------------|
D|--0-------------------------------------+0---------------------------------|
G|--0------------------------------------------------------------------------|
D|-------------------------------------------------0-------------------------|

   to believe in,   cause i dont believe in my-self
e|-------------------------------------------------+0------------------------|
B|-------------------------------------------------+0------------------------|
G|---------------------------------------------------------------------------|
D|---------------0-----------------------------------------------------------|
A|---------------0-----------------------------------------------------------|
E|---------------------------------------------------------------------------|

       and im sick and tired,   of getting nowhere   guess it'll all work out
e|---------------------------------------------------------------------------|
B|---------------------------------------------------------------------------|
G|---------------------------------------------------------------------------|
D|------------------------------------------------0--------------------------|
A|------------------------------------------------0--------------------------|
E|--0------------------------------------------------------------------------|

 (Chorus)    and i dont mind        anymore        <(x2)>
e|-----------------------------------------------------------------0---------|
B|------4--4------------0--0-----------0---0-------------0---0--------0------|
G|------6--6------------2--2-----------2---2-------------2---2----------0----|
D|----4---------------0--------------0-----------------0-----------3/7-/5----|
A|--4-----4---------0-----0--------------------------------------------------|
E|---------------------------------0-----0-----0-----0-----0-----0-----------|


Back to intro part
Chorus
Now the chorus continues into a strummed Section which i think is as follows

e|----0--------------0----x----x-------------------------------------------------|
B|----0--------------x----4----5-------------------------------------------------|
G|----x--------------4----6----7-------------------------------------------------|
D|----4--------------0----0----0-------------------------------------------------|
A|----2--------------x----x----x-------------------------------------------------|
E|----0--------------5----5----5-------------------------------------------------|

Then back to intro, chorus and strummed then outro (intro part) and thats it  everything 
need there are a couple of wicked little bits he does in the chorus they are only minor 

| /  slide up
| \  slide down
| h  hammer-on
| p  pull-off
| ~  vibrato
| +  harmonic
| x  Mute note
===============================================================================
            
Submit corrections

comments powered by Disqus
↑ Back to top | Newton Faulkner Tabs for I Need Something. Lyrics for acoustic guitar and electric guitar. Tablatures and chords are parodies/interpretations of the original songs. You may use it for private study, scholarship, research or language learning purposes only