» » »

All I Got Tabs (ver.5)

Artists:  A B C D E F G H I J K L M N O P Q R S T U V W X Y Z # 

All I Got Tabs (ver.5)

Newton Faulkner
Rating:
5/5 (2 votes)

Hard to play? Try these video lessons and learn fast.
                (Intro)
Hi,
just worked out this intro but if anyone can do the rest of the song that would be great...

Standard tuning
no capo

e---------------------------------------------------------------|
B- 6-------6-------7-------7-------9-------9------13------13----|
G----6-------6-------6-------6-------6-------6-------10------10-|
D---------------------------------------------------------------|
A- 4-------4-------6-------6-------8-------8-----12------12-----|
E---------------------------------------------------------------|


e---------------------------------------------------------------------------|
B--14------14------14------14h16--14----13-------13-------13h14p13----------|
G-----10------10------10------------------10-------10--------------15-------|
D---------------------------------------------------------------------13/15-|
A--13------13------13------------------12-------12--------------------------|
E---------------------------------------------------------------------------|


have fun
            
Hard to play? Try these video lessons and learn fast. | Correct




comments powered by Disqus
↑ Back to top | Tablatures and chords are parodies/interpretations of the original songs. You may use it for private study, scholarship, research or language learning purposes only