» » »

All I Got Tabs (ver.1)

Artists:  A B C D E F G H I J K L M N O P Q R S T U V W X Y Z # 

All I Got Tabs (ver.1)

Newton Faulkner
Rating:
5/5 (3 votes)

Hard to play? Try these video lessons and learn fast.
                (Intro)
Hey, this is my first tab. No idea if it's any good.
This is as much as i'v worked out yet.

Standard tuning
Capo at 6th 

Intro

e---------------------------------------------------------------|
B- 0-------0-------1-------1-------3-------3------7-------7-----|
G----0-------0-------0-------0-------0-------0-------0-------0--|
D---------------------------------------------------------------|
A------------------0-------0-------2-------2------5-------5-----|
E--3-------3----------------------------------------------------|


e--------------------------------------------------------------------------|
B---8------8--------8-------8h10-8-------7--------7--------7------7/8\3/5--|
G------0-------0-------0-------------------0--------0--------0-------------|
D--------------------------------------------------------------------------|
A---7------7--------7--------------------5--------5--------5---------------|
E--------------------------------------------------------------------------|

Verse
e----------------------------------------------------------------------3--|
B-----5\3----3---0----0---0--0h1p0--------5\3-----3---0-----0--1--3-------|
G-----4\2----2---0----0---0--------0------4\2-----2---0-----0--0--0--0---0|
D-------------------------------------------------------------------------|
A-------------------------------------------------------------------------|
E-0-------2------3--3---3-------------0-------2-------3--3----------------|

e----------------------------------------------------------------------3--|
B-----5\3----3---0----0---0--0h1p0--------5\3-----3---0-----0--1--3-------|
G-----4\2----2---0----0---0--------0------4\2-----2---0-----0--0--0--0---0|
D-------------------------------------------------------------------------|
A-------------------------------------------------------------------------|
E-0-------2------3--3---3-------------0-------2-------3--3----------------|


e-------------------------------------------------------------------------|
B-----5\3----3---0----0---0--0h1p0--------5\3-----3---0-----0---0---0-----|
G-----4\2----2---0----0---0--------0------4\2-----2---0-----0---0---0-----|
D-------------------------------------------------------------------------|
A-------------------------------------------------------------------------|
E-0-------2------3--3---3-------------0-------2-------3--3----3---3-------|

e--------2------2--------3-----3---3--------------------------------------|
B--------4------4--------5-----5---5------5\3-----3---0----0---0--0h1p0---|
G--------4------4--------5-----5---5------4\2-----2---0----0---0--------0-|
D-------------------------------------------------------------------------|
A---2--------2-------3------3---------------------------------------------|
E-------------------------------------0-------2-------3--3---3------------|

e--------2------2--------3-----3---3--------------------------------------|
B--------4------4--------5-----5---5--------------------------------------|
G--------4------4--------5-----5---5--------------------------------------|
D-------------------------------------------------------------------------|
A---2--------2-------3------3---------------------------------------------|
E-------------------------------------------------------------------------|

Hope that helped
            
Hard to play? Try these video lessons and learn fast. | Correct




comments powered by Disqus
↑ Back to top | Tablatures and chords are parodies/interpretations of the original songs. You may use it for private study, scholarship, research or language learning purposes only