>
 >
All I Got

All I Got Guitar Tabs

Newton Faulkner - All I Got chords, tabs, tablatures, lyrics

Guitar lessons | Add/correct | Request | Top 50 tabs Artists:  A B C D E F G H I J K L M N O P Q R S T U V W X Y Z 0-9

All I Got Guitar Tabs – Newton Faulkner

CD, Sheet music, Poster

Do you like All I Got? Share with your friends now
Bass TabsChordsChords v2TabsTabs v2Tabs v3Ukulele
just added and corrected a bit of MarcusL_6's tab.

The end bit of pre-chorus and the chorus dont sound right, but thats All I Got [heh, 

Capo 6.

Intro
E||--------------------------|--------------------------|
B||--0-----0-----1-----1-----|--3-----3-----7-----7-----|
G||-----0-----0-----0-----0--|-----0-----0-----0-----0--|
D||--------------------------|--------------------------|
A||--------------0-----0-----|--2-----2-----5-----5-----|
E||--3-----3-----------------|--------------------------|


------------------------------|-------------------------------|
--8-----8-----8-----8h-10p-8--|--7-----7-----7-----7S-8S-3S-5-|
-----0-----0-----0------------|-----0-----0-----0-------------|
------------------------------|-------------------------------|
--7-----7-----7---------------|--5-----5-----5----------------|
------------------------------|-------------------------------|

Verse
-----------------------|-------------------------|-----------------------|
------5S--3-----3----0-|-L-----0-----0--0-1-0----|------5S--3-----3----0-|
------4S--2-----2----0-|-L-----0-----0---------0-|------4S--2-----2----0-|
-----------------------|-------------------------|-----------------------|
-----------------------|-------------------------|-----------------------|
-0-----------2-------3-|-L--3-----3--3-----------|-0-----------2-------3-|

                           SEGNO
--------------------3-----|-------------------------|
--L-----0--1--3-----------|-------5S--3-----3----0--|
--L-----0--0--0--0-----0--|-------4S--2-----2----0--|
--------------------------|-------------------------|
--------------------------|-------------------------|
--L--3--------------------|--0-----------2-------3--|


---------------------------|-------------------------|
--L-----0-----0--0-1-0-----|-------5S--3-----3----0--|
--L-----0-----0---------0--|-------4S--2-----2----0--|
---------------------------|-------------------------|
---------------------------|-------------------------|
--L--3-----3--3------------|--0-----------2-------3--|


--------------------3-----|-------------------------|
--L-----0--1--3-----------|-------5S--3-----3----0--|
--L-----0--0--0--0-----0--|-------4S--2-----2----0--|
--------------------------|-------------------------|
--------------------------|-------------------------|
--L--3--------------------|--0-----------2-------3--|


-------------------------|-----------------------|---------------------|
-L-----0-----0--0-1-0----|------5S--3-----3----0-|-L-----0-----0-----0-|
-L-----0-----0---------0-|------4S--2-----2----0-|-L-----0-----0-----0-|
-------------------------|-----------------------|---------------------|
-------------------------|-----------------------|---------------------|
-L--3-----3--3-----------|-0-----------2-------3-|-L--3-----3-----3----|

Pre-Chorus
-----------------------|-----------------------|-------------------------|
-------4-------4-------|-----5-------5----5----|-------5S--3-----3----0--|
-------4-------4-------|-----5-------5----5----|-------4S--2-----2----0--|
-----------------------|-----------------------|-------------------------|
--2---------2-------3--|--L-------3------------|-------------------------|
-----------------------|-----------------------|--0-----------2-------3--|


---------------------------|-----------------------|-----------------------|
--L-----0-----0--0-1-0-----|-------4-------4-------|-----5-------5----5----|
--L-----0-----0---------0--|-------4-------4-------|-----5-------5----5----|
---------------------------|-----------------------|-----------------------|
---------------------------|--2---------2-------3--|--L-------3------------|
--L--3-----3--3------------|-----------------------|-----------------------|

                                          Chorus
---------------------|------------------||---------------------|
------1-------1------|------------------||-----0----------0----|
------2-------2----3-|-L----------------||*----0----------0----|
---------------------|------------------||*----0----------0----|
-0---------0-------1-|-L----------------||---------------------|
---------------------|------------------||--3-----x--0-------x-|


                      3x                                     DA SEGNO
----------------------||--------------------|---------------------|
-----7-----5----5-----||----0----------0----|-----7-----5----5----|
-----7-----5----5----*||----0----------0----|-----7-----5----5----|
---------------------*||----0----------0----|---------------------|
--L-------------------||--------------------|--L------------------|
--L-----x----------x--||-3-----x--0-------x-|--L-----x----------x-|

Bridge
-------------------------|-------------------------|----------------------|
--7-----7-----7-----7----|--3-----3-----3-----3----|----------------------|
-----7-----7-----7-----7-|-----0-----0-----0-----0-|----------------------|
-------------------------|-------------------------|-2---4---5------------|
--5-----5-----5-----5----|--3-----3-----3-----3----|------------2---3---5-|
-------------------------|-------------------------|----------------------|


-------------------------|------------------------|----------------------|
--7-----7-----7-----7----|-3-----3-----3-----3----|---------0----------0-|
-----7-----7-----7-----7-|----0-----0-----0-----0-|-----0----------0-----|
-------------------------|------------------------|-2--------------------|
--5-----5-----5-----5----|-3-----3-----3-----3----|------------2---------|
-------------------------|------------------------|----------------------|

                         Chorus                                      x8
-----------------------||---------------------|----------------------||
----------0----------0-||-----0----------0----|----7-----5----5------||
------0----------0-----||*----0----------0----|----7-----5----5-----*||
--2--------------------||*----0----------0----|---------------------*||
-------------2---------||---------------------|-L--------------------||
-----------------------||--3-----x--0-------x-|-L-----x----------x---||

Outro
------------------------|-------------------------|-----------------------||
-------5S--3-----3----0-|-L-----0-----0--0-1-0----|------5S--3-----3----0-||
-------4S--2-----2----0-|-L-----0-----0---------0-|------4S--2-----2----0-||
------------------------|-------------------------|-----------------------||
------------------------|-------------------------|-----------------------||
--0-----------2-------3-|-L--3-----3--3-----------|-0-----------2-------3-||

L = tied note (hold last note[s])
S = slide
x = hit strings
h = hammer-on
p = pull-off





Comments


Popular Newton Faulkner tabs & chords
If This Is It Chords
Uncomfortably Slow 6 Chords
Been Thinking About It Tabs
I Need Something 1 Tabs
I Took It Out On You Tabs
Im Not Giving Up Yet Intro Tabs
Lipstick Jungle 2 Tabs
People Should Smile More Tabs
Write It On Your Skin Tabs
Feels Like Home Ukulele


Song lyrics



↑ Back to top | Tablatures and chords are parodies/interpretations of the original songs. You may use it for private study, scholarship, research or language learning purposes only
© 2014 AZChords.com Contact us | Privacy policy | DMCA | Add/correct tabs | Request tabs | Top 50 tabs