» » »

Newton Faulkner, All I Got Tabs (ver.3)

Artists:  A B C D E F G H I J K L M N O P Q R S T U V W X Y Z # 

All I Got Tabs (ver.3)

Newton Faulkner Tabs
Rating:
5/5 (11 votes)
Hard to play? Try these video lessons and learn fast.
                ----------------------------------------------------------------------------
                             All I Got - Newton Falkner
----------------------------------------------------------------------------

Tuning:capo 1

intro

e|0----0----1----1----3----3----7----7----8----8----8----8--/10--8--7----7--
B|--1----1----1----1----1----1----5----5----5----5----5----5----------5----5
G|--------------------------------------------------------------------------
D|----------0----0----2----2----6----6----7----7----7----7----------6----6--
A|3----3--------------------------------------------------------------------
E|--------------------------------------------------------------------------

e|7----7h8p7p5-------------------------------------------------------------|
B|--5---------8/10---------------------------------------------------------|
G|-------------------------------------------------------------------------|
D|6------------------------------------------------------------------------|
A|-------------------------------------------------------------------------|
E|-------------------------------------------------------------------------|
   verse 

e|----5\3----3--0----0-----0------0h1p0------------------------------------|
B|----5\3----3--1----1-----1------------1----------------------------------|
G|-------------------------------------------------------------------------|
D|-------------------------------------------------------------------------|
A|--0------2-------3-----3----3--------------------------------------------|
E|-------------------------------------------------------------------------|
    
e|----5\3----3--0---0--1--3--8---------------------------------------------|
B|----5\3----3--1---1--1--1------------------------------------------------|
G|-------------------------------------------------------------------------|
D|-------------------------------------------------------------------------|
A|--0------2------3--------------------------------------------------------|
E|-------------------------------------------------------------------------|

then for the mid part play block cords 
(thumb on bass string, three fingers play high strings at the same time)

bass note 6th string
bar E @ 7th x2
bar F7 @ 8th x2

bass note 5th string
bar Dm @ 5th x2
bar Eb @ 6th x2

:)

| /  slide up
| \  slide down
| h  hammer-on
| p  pull-off
| ~  vibrato
| +  harmonic
| x  Mute note
============================================================================
            

comments powered by Disqus
↑ Back to top | Newton Faulkner Tabs for All I Got. Lyrics for acoustic guitar and electric guitar. Tablatures and chords are parodies/interpretations of the original songs. You may use it for private study, scholarship, research or language learning purposes only