» » »

Neon Trees, 1983 Bass tabs (ver.1)

Artists:  A B C D E F G H I J K L M N O P Q R S T U V W X Y Z # 

1983 Bass tabs (ver.1)

Neon Trees Tabs
Rating:
5/5 (1 vote)
Hard to play? Try these video lessons and learn fast.
                This is my tab of 1983 by Neon Trees. Tuning standard (low to high: EADG). Im not shure 
about the bridge. If you have any corrections or sugestions, just send me an 
These numbers are all 1's, there are no 11's. 
enjoy!

Intro

G|-------------------------------------|
D|o-----------------------------------o|
A|o----------------11-111-111-133-333-o|
E|-11-111-111-111-1--------------------|

Verse 1

G|-------------------------------------| 4x
D|o-----------------------------------o|
A|o-----------------111111111-3333333-o|
E|-1111111111111111--------------------|

Chorus

G|--------------------------------------| 3x
D|o------------------------------------o|
A|o---------11111111-33333333-11111111-o|
E|-11111111-----------------------------|

Re-Intro

G|------------------------------------| 1x
D|------------------------------------|
A|-----------------11-111-111-133-333-|
E|-11-111-111-111-1-------------------|

Verse 2

G|-------------------------------------| 4x
D|o-----------------------------------o|
A|o-----------------111111111-3333333-o|
E|-1111111111111111--------------------|


Chorus

G|--------------------------------------| 3x
D|o------------------------------------o|
A|o---------11111111-33333333-11111111-o|
E|-11111111-----------------------------|

Bridge

G|--------------------------------| 1x
D|-55-544-400-000--55-544-466-666-|
A|--------------------------------|
E|--------------------------------|

G|----------------------------------------------------| 1x
D|55-544-400-000--55555555-77777777-33333333-00000000-|
A|----------------------------------------------------|
E|----------------------------------------------------|


G|---------------------------------------------| 1x
D|-777-555-777-555-775--777-555-777-555-777-7~-|
A|---------------------------------------------|
E|---------------------------------------------|

--Wait 8 bits--

Chorus

G|--------------------------------------| 6x
D|o------------------------------------o|
A|o---------11111111-33333333-11111111-o|
E|-11111111-----------------------------|

Outro

G|-------------------------------------|
D|o-----------------------------------o|
A|o----------------11-111-111-133-333-o|
E|-11-111-111-111-1--------------------|
            

comments powered by Disqus
↑ Back to top | Neon Trees Bass for 1983. Lyrics for acoustic guitar and electric guitar. Tablatures and chords are parodies/interpretations of the original songs. You may use it for private study, scholarship, research or language learning purposes only