» » »

Nekromantix, Nekrofelia Tabs (ver.2)

Artists:  A B C D E F G H I J K L M N O P Q R S T U V W X Y Z # 

Nekrofelia Tabs (ver.2)

Nekromantix Tabs
 Rating:
4/5 (5 votes)
Nekrofelia lessons Tabs too difficult? Try these video lessons and learn fast
1
                Intro
    Am                  F 
E|-------------------|--------------------| 
B|-------------------|--------------------| 
G|-------------------|--------------------| 
D|--2----------------|-----3------2-3--5--| 
A|--0-----2-3---2-3--|-----3--------------| 
E|-------------------|--1-----------------| 

    C                       G 
E|-----------------------|-------------------| 
B|-----------------------|-------------------| 
G|-----------------------|-------------------| 
D|--5----3-2-------------|-------------------| 
A|-----------3---3--5~~--|----3-2------5--4--| 
E|-----------------------|---------3---3--2--| 

    F                      Am     G              Am     G 
E|------1---------------|---------------------|---------------------| 
B|------1---------------|---------------------|---------------------| 
G|------2---------------|---------------------|---------------------| 
D|------3---------------|--2---------------0--|--2---------------0--| 
A|--3---------2-3--2-3--|--0------------3-----|--0------------3-----| 
E|--1-------------------|---------3--1--------|---------3--1--------| 


 Am                       F 
E|------------------------|--------------------------| 
B|------------------------|--------------------------| 
G|------------------------|--------------------------|
D|------------------------|--------------------------|
A|------------------------|--------------------------|
E|-5--5--5--5--5--5--5--5-|-1--1--1--1--1--1--1--1---|


Chorus:
    C                          G                    F#    F 
E|--------------------------|--------------------------|-------------------| 
B|--------------------------|--------------------------|-------------------| 
G|--------------------------|--------------------------|-------------------|
D|--------------------------|--------------------------|-------------------|
A|--3--3--3--3--3--3--3--3--|--------------------------|----3---3---3---3--|
E|--------------------------|--3--3--3--3--3--3--3--2--|--1---1---1---1----|

    Am          G 
E|------------|------------| 
B|------------|------------| 
G|------------|------------|
D|------------|------------|
A|------------|-------3--5-|
E|-5--5--5--5-|-3--1-------|


Solo:
    Am                         F 
E|--------------------------|--------------------------|
B|--------------------------|--------------------------|
G|--------------------------|--------------------------|
D|--------------------------|--------------------------|
A|--0--3--5--7--0--2--5--7--|--8--7--5--3--8--7--5--3--|
E|--------------------------|--------------------------|

    C                          G                    F#    F 
E|--------------------------|--------------------------|-----------------------|
B|--------------------------|--------------------------|-----------------------|
G|--------------------------|--------------------------|-----------------------|
D|-----2--5--2-----2--3--4--|--------------------------|-----------------------|
A|--3-----------3-----------|-----2--3--4--5--6--5--4--|--3-----3-----3-----3--|
E|--------------------------|--3-----------------------|-----1-----1-----1-----|
            
Submit corrections

comments powered by Disqus
↑ Back to top | Nekromantix Tabs for Nekrofelia. Lyrics for acoustic guitar and electric guitar. 1 Tablatures and chords are parodies/interpretations of the original songs. You may use it for private study, scholarship, research or language learning purposes only