>
 >
Nekrofelia

Nekrofelia Guitar Tabs

Nekromantix - Nekrofelia chords, tabs, tablatures, lyrics

Guitar lessons | Add/correct | Request | Top 50 tabs Artists:  A B C D E F G H I J K L M N O P Q R S T U V W X Y Z 0-9

Nekrofelia Guitar Tabs – Nekromantix

CD, Sheet music, Poster

Do you like Nekrofelia? Share with your friends now
Bass TabsBass Tabs v2ChordsTabsTabs v2Tabs v3Tabs v4Ukulele
-----------------------------------------------------------------------------------
-----------------------------------------------------------------------------------

Tuning: Standard 


 Intro:
e|------------------------------------------------------------|
B|------------------------------------------------------------|
G|---------------10-----------------------------10------------|
D|-7-------------10---2-2-3-2-3--7--------------10------------|
A|-7--2-3-2h3----8---------------7---2-3—2h3----8-------------|
E|-5----------1------------------5-----------1----------------|


e|------------------------------------------------------------|
B|------------------------------------------------------------|
G|-------------------------------------10---------------------|
D|-2-3-5-5-3-2-------------------------10-----------7---------|
A|-------------3—3h5/6\5-3-2-----------8---2-3-2h3--7---------|
E|---------------------------3-3-2-1----------------5---------|

 
 
e|------------------------------------------------------------|
B|------------------------------------------------------------|
G|------------------------------------------------------------|
D|------------------5-------------------5---------------------|
A|---------222-333--5----------222-333--5---------------------|
E|-333-111----------3--333-111----------3---------------------|

 Verse 1:
e|------------------------------------------------------------|
B|------------------------------------------------------------|
G|---------------10-----------------------------10------------|
D|-7-------------10---2-2-3-2-3--7--------------10--2-3-5-----|
A|-7--2-3-2h3----8---------------7---2-3—2h3----8-------------|
E|-5----------1------------------5-----------1----------------|
  “My sweet baby she passed away...”
  
 Chorus:
e|--------------------------------------------------------------------------------|
B|--------------------------------------------------------------------------------|
G|-5-55-5-5-55-----------------10-------------------------------------------------|
D|-5-55-5-5-55-5-55-5-5-5-4-3--10----------7------------------7-----------------7-|
A|-3-33-3-3-33-5-55-5-5-5-4-3--8--2-3-2h3--7---------222-333--7---------222-333-7-|
E|-------------3-33-3-3-3-2-1--------------5-333-111----------5-333-111---------5-|
  “Baby, Baby, She wrote to me...”

 Verse 2:
e|------------------------------------------------------------|
B|------------------------------------------------------------|
G|---------------10-----------------------------10------------|
D|-7-------------10---2-2-3-2-3--7--------------10--2-3-5-----|
A|-7--2-3-2h3----8---------------7---2-3—2h3----8-------------|
E|-5----------1------------------5-----------1----------------|
  “We used to play this innocent game...”

Chorus:
e|---------------------------------------------------------------------------------|
B|---------------------------------------------------------------------------------|
G|-5-55-5-5-55------------------10--------------------------------------------------|
D|-5-55-5-5-55-5-4/5-5-5-5-4-3--10----------7------------------7-----------------7-|
A|-3-33-3-3-33-5-4/5-5-5-5-4-3--8--2-3-2h3--7---------222-333--7---------222-333-7-|
E|-------------3-2/3-3-3-3-2-1--------------5-333-111----------5-333-111---------5-|
  “Baby, Baby, She wrote to me...”

 Solo:
e|--------------------------------------------------------------------|
B|-----------6--5-6-5---10------------6--55-6-8-8-6-5-----------------|
G|-4-5-4h5------------------4-5-4h5-------------------5-5h7/8\7-5-4---|
D|---------3----------7-------------3-------------------------------5-|
A|--------------------------------------------------------------------|
E|--------------------------------------------------------------------|


e|--------------------------------------------------------------------|
B|-------6---------------------------6-----------------6--------------|
G|---------4-5-4h5-----------444-555-----------444-555----------------|
D|-5-4-3-----------7-555-333-----------555-333------------------------|
A|--------------------------------------------------------------------|
E|--------------------------------------------------------------------|

 
 Verse 3:
e|------------------------------------------------------------|
B|------------------------------------------------------------|
G|---------------10-----------------------------10------------|
D|-7-------------10---2-2-3-2-3--7--------------10--2-3-5-----|
A|-7--2-3-2h3----8---------------7---2-3—2h3----8-------------|
E|-5----------1------------------5-----------1----------------|
  “A wicked world of any kind...”
 
 Chorus/End:
e|---------------------------------------------------------------------------------|
B|---------------------------------------------------------------------------------|
G|-5-55-5-5-55------------------10-------------------------------------------------|
D|-5-55-5-5-55-5-4/5-5-5-5-4-3--10----------7------------------7-----------------7-|
A|-3-33-3-3-33-5-4/5-5-5-5-4-3--8--2-3-2h3--7---------222-333--7---------222-333-7-|
E|-------------3-2/3-3-3-3-2-1--------------5-333-111----------5-333-111---------5-|
  “Baby, Baby, She wrote to me...”

e|--------------------|
B|--------------------|
G|--------------------|
D|------------------7-|
A|---------222-333--7-|
E|-333-111----------5-|
  “My Nekrofeliaaaaa”

| /  slide up
| \  slide down
| h  hammer-on
===============================================================================





Comments


Popular Nekromantix tabs & chords
Last Night I Saved An Angel 1 Bass Tabs
Love At First Bite Bass Tabs
Alive Tabs
Alive Intro 1 Tabs
Black Wedding 1 Tabs
I'm A Hellcat Tabs
Nekrofelia 2 Tabs
Nice Day For A Resurrection Tabs
Nice Day For A Resurrection 1 Tabs
Who Killed The Cheerleader 1 Tabs


Song lyrics



↑ Back to top | Tablatures and chords are parodies/interpretations of the original songs. You may use it for private study, scholarship, research or language learning purposes only
© 2014 AZChords.com Contact us | Privacy policy | DMCA | Add/correct tabs | Request tabs | Top 50 tabs