» » »

Nekromantix, Nekrofelia Bass tabs (ver.2)

Artists:  A B C D E F G H I J K L M N O P Q R S T U V W X Y Z # 

Nekrofelia Bass tabs (ver.2)

Nekromantix Tabs
 Rating:
4/5 (4 votes)
Nekrofelia lessons Tabs too difficult? Try these video lessons and learn fast
1
                Nekromantix
Nekrofelia

Intro
G|---------------------------------|
D|---------------------------------|
A|-0-0-0-0-0-0-0-------------------| x2
E|---------------3-1-1-1-1-1-1-1-3-|

G|-------------------------------------------------|
D|-------------------------------------------------|
A|-3-3-3-3-3-3-3-3-------------------3---3---3---3-|
E|-----------------3-3-3-3-3-3-3-2-1---1---1---1---|

G|---------------------------------|
D|---------------0---------------0-|
A|-0-0-0-0-----3---0-0-0-0-----3---|
E|---------3-1-------------3-1-----|

Verse
G|---------------------------------|
D|---------------------------------|
A|-0-0-0-0-0-0-0-0-----------------|
E|-----------------1-1-1-1-1-1-1-3-|

G|---------------------------------|
D|---------------------------------|
A|-0-0-0-0-0-0-0-------------------|
E|---------------3-1-1-1-1-1-1-1-1-|

Chorus
G|-------------------------------------------------|
D|-------------------------------------------------|
A|-3-3-3-3-3-3-3-3-------------------3-------------|
E|-----------------3-3-3-3-3-3-3-2-1---1-1-1-1-1-3-|

G|---------------------------------|
D|---------------0---------------0-|
A|-0-0-0-0-----3---0-0-0-0-----3---|
E|---------3-1-------------3-1-----|

Verse x2
G|---------------------------------|
D|---------------------------------|
A|-0-0-0-0-0-0-0-------------------|
E|---------------3-1-1-1-1-1-1-1-3-|

Chorus
G|-------------------------------------------------|
D|-------------------------------------------------|
A|-3-3-3-3-3-3-3-3---------------------------------|
E|-----------------3-3-3-3-3-3-3-2-1-1-1-1-1-1-1-3-|

G|---------------------------------|
D|---------------0---------------0-|
A|-0-0-0-0-----3---0-0-0-0-----3---|
E|---------3-1-------------3-1-----|

Solo x2
G|---------------------------------|
D|-----0-2-----0-2-----------------|
A|-0-3-----0-3-------3-2-0---3-2-0-|
E|-----------------1-------1-------|

G|-----------------------------|
D|---2-4-2---2-3-4-------------|
A|-3-------3---------2-3-4-5-6-|
E|-----------------3-----------|

Chorus
G|---------------------|
D|---------------------|
A|---------------------|
E|-3-2-1-1-1-1-1-1-1-3-|

G|---------------------------------|
D|---------------0---------------0-|
A|-0-0-0-0-----3---0-0-0-0-----3---|
E|---------3-1-------------3-1-----|

Verse x2
G|---------------------------------|
D|---------------------------------|
A|-0-0-0-0-0-0-0-0-----------------|
E|-----------------1-1-1-1-1-1-1-3-|

Chorus
G|-------------------------------------------------|
D|-------------------------------------------------|
A|-3-3-3-3-3-3-3-3---------------------------------|
E|-----------------3-3-3-3-3-3-3-2-1-1-1-1-1-1-1-3-|

G|---------------------------------|
D|---------------0---------------0-|
A|-0-0-0-0-----3---0-0-0-0-----3---|
E|---------3-1-------------3-1-----|

Outro
G|-------------------|
D|---------------0---|
A|-0-0-0-0-----3---0-|
E|---------3-1-------|
            
Submit corrections

comments powered by Disqus
↑ Back to top | Nekromantix Bass for Nekrofelia. Lyrics for acoustic guitar and electric guitar. 1 Tablatures and chords are parodies/interpretations of the original songs. You may use it for private study, scholarship, research or language learning purposes only