» » »

Rockin In The Free World Bass tabs (ver.1)

Artists:  A B C D E F G H I J K L M N O P Q R S T U V W X Y Z # 

Rockin In The Free World Bass tabs (ver.1)

Neil Young
Rating:
0/5 (0 votes)

Hard to play? Try these video lessons and learn fast.
                "Keep on Rockin' in the Free World" by Neil Young

Verse
G-----------------------------|
D-----------------------------|
A-----------------5-5-5-3-3-3-|
E-0-0-0-0-0-0-0-0-------------|

Chorus
G-------------------------------|
D-------------------------------|
A---------5-5-5-5-3-3-3-3-3-2---|
E-3-3-3-3---------------------0-|

After Chorus
G---|
D---|
A-0-|
E---|

>>play Verse on guitar solo
            
Hard to play? Try these video lessons and learn fast. | Correct




comments powered by Disqus
↑ Back to top | Tablatures and chords are parodies/interpretations of the original songs. You may use it for private study, scholarship, research or language learning purposes only