» » »

Neil Young, Rockin In The Free World Tabs (ver.2)

Artists:  A B C D E F G H I J K L M N O P Q R S T U V W X Y Z # 

Rockin In The Free World Tabs (ver.2)

Neil Young Tabs
 Rating:
4/5 (4 votes)
Rockin In The Free World lessons Tabs too difficult? Try these video lessons and learn fast
                (1)
(Electric Version)
=0D
Here is the correct version solo and all =

					|Verse1
(PEARL JAM VERSION USE POWER CHORDS)	|Chorus (w\interlude)
					|Verse2
***View and print in notepad****  Order |Chorus (w\interlude)
   View and print in notepad		|Solo
					|Verse3 (different see below)
					|Chorus (No interlude)
whole song done with Neil Young distortion
Verse 1+2
    Em     D   C
e---------2-2-0-0-|\
B---------3-3-1-1-| \
G---------2-2-0-0-|  \ 8x      *View and print in notepad*
D-2-2-2-2-0-0-2-2-|  /
A-2-2-2-2-----3-3-| /
E-0-0-0-0-----0-0-|/
Chorus
     G       D         C       Em
e-3-3-3-3-2-2-2-2-0-0-0-0-0-0-0-0-|\
B-3-3-3-3-3-3-3-3-1-1-1-1-1-1-0-0-| \
G-0-0-0-0-2-2-2-2-0-0-0-0-0-0-0-0-|  \ 4x
D-0-0-0-0-0-0-0-0-2-2-2-2-2-2-2-2-|  /
A-2-2-2-2---------3-3-3-3-3-3-2-2-| / =
E-3-3-3-3---------0-0-0-0-0-0-0-0-|/
Interlude comes after each chorus
   G
e-3-3-0-0-0-0-|\
B-3-3-2-2-2-2-| \
G-0-0-2-2-2-2-|  \     *View and print in notepad*
D-0-0-2-2-2-2-|  / 3x
A-2-2-0-0-0-0-| /
E-3-3---------|/
=0D
Last Verse is different
e---------------------------------|\
B---------------------------------| \
G---------------------------------|  \
D---------------------------------|  / 8x
A-----------------5-5-5-5-3-3-3-3-| /
E-0-0-0-0-0-0-0-0-----------------|/
=0D
Solo                     =

e-12-12-12-12-12-12-12---^^^^^^^^^-------------------------------|
B-12-12-12-12-12-12----15--15-15-15-12-------^^^^^^^--12-------12|
G--------------------------------------15-12-12-12h14----14-14---|
D----------------------------------------------------------------|
A----------------------------------------------------------------|
E----------------------------------------------------------------|
*View and print in notepad*
e-----------^^^^^12-15b15b15^^^15b---12--------------------------|
B-12-------12----12---------------15-------------------14--------|
G----14b14-14-14------------------------14-14-12-^^^^^-14-12-----|
D------------------------------------------------14-14-----------|
A----------------------------------------------------------------|
E----------------------------------------------------------------|
=0D
e-------------------------------0---------------------12-12-12-12|
B-------------------------------0-15---------------15-15-15-15-15|
G12----------12--^^^^^------12b14b---14-12-14b-14b---------------|
D---14-12----12-14----14-14--------------------------------------|
A---------14-----------------------------------------------------|
E----------------------------------------------------------------|
*View and print in notepad*
e-12-12---------^^^^^-12----12-12b---15-15^^^^14 15--------------|
B-15-15-12-15-15---------15b---15b15----------------15-----------|
G-------------------------------0-------------------15-----------|
D----------------------------------------------------------------|
A----------------------------------------------------------------|
E----------------------------------------------------------------|
=0D
e-15-14-12^^^^12^^^15-14-12----12-14-12-15b----------------------|
B---------------------------15-----------------------------------|
G----------------------------------------------------------------|
D----------------------------------------------------------------|
A----------------------------------------------------------------|
E----------------------------------------------------------------|
            
Submit corrections

comments powered by Disqus
↑ Back to top | Neil Young Tabs for Rockin In The Free World. Lyrics for acoustic guitar and electric guitar. Tablatures and chords are parodies/interpretations of the original songs. You may use it for private study, scholarship, research or language learning purposes only