» » »

Cowgirl In The Sand Tabs (ver.1)

Artists:  A B C D E F G H I J K L M N O P Q R S T U V W X Y Z # 

Cowgirl In The Sand Tabs (ver.1)

Neil Young
Rating:
0/5 (0 votes)

Hard to play? Try these video lessons and learn fast.
                (Intro)
This is my first tab, enjoy!

If Your Not Sure About The Fingering Of Some Chords,
Check Out Chordbook.com !

q= quarter note; h= half note; w= whole note; e= eighth note
/ = Hammer On
mf = Let Note Ring Through
(Letter)= Chord Suggested to put fingers in position when playing measure, and just 
fingers from there to hit various notes.

(Moderately Slow)

 (Am)-------------------------------------- (Em7)--------------
  q  eh h   q q e h   q  eh h   q q  eeee    q ee q q   q eh h
|---------|-------0-|---------|------------|------0---|------0-|
|-----0-1-|-----3---|-------3-|---1--01----|----3-----|----3---|
|---------|---2-----|-----2---|--------2---|--------0-|---0----|
|----2----|-2-------|----2----|---------2--|----------|-2------|
|-0-------|---------|-0-------|-0----------|---2------|--------|
|---------|---------|---------|------------|-0--------|--------|
 (mf)

 (Cadd9)---------------------------- (Am)--------------------
  q eh h   q eh h   q eh h   q eh h   ee q e e q   ee q e e q
|--------|--------|----0---|------0-|----------0-|----3-----0-|
|----3---|------3-|------3-|----3---|------0/1---|--1---0/1---|
|------0-|----0---|--------|---0----|----2-------|-2----------|
|---2----|---2----|---2----|-2------|--2---------|------------|
|-3------|-3------|-3------|--------|-0----------|------------|
|--------|--------|--------|--------|------------|------------|


| ee q e h   ee q e h   ee q e h   ee q e w
|----0---0-|----0---0-|----0---0-|----0---0-|
|----------|----------|----------|----------|
|--2-------|--2-------|--2-------|--2-------|
|-0----0---|-0----0---|-0----0---|-0----0---|
|----------|----------|----------|----------|

Then Play Some Simple Chords Before The Chorus Begins:

q  e e  q  h     q ee q h    q  e e  q  h      q ee q h
Am AmAm Am Am    F FF F F    Am AmAm Am Am     F FF F F

Chords:

 Am  F
|-0--1-|
|-1--1-|
|-2--2-|
|-2--3-|
|-0----|
|------|
            
Hard to play? Try these video lessons and learn fast. | Correct




comments powered by Disqus
↑ Back to top | Tablatures and chords are parodies/interpretations of the original songs. You may use it for private study, scholarship, research or language learning purposes only