>
 >
Cowgirl In The Sand

Cowgirl In The Sand Guitar Tabs

Neil Young - Cowgirl In The Sand chords, tabs, tablatures, lyrics

Guitar lessons | Add/correct | Request | Top 50 tabs Artists:  A B C D E F G H I J K L M N O P Q R S T U V W X Y Z 0-9

Cowgirl In The Sand Guitar Tabs – Neil Young

CD, Sheet music, Poster

Do you like Cowgirl In The Sand? Share with your friends now
Bass TabsBass Tabs v2Bass Tabs v3Bass Tabs v4ChordsChords v2TabsTabs v2
Lennart Manig
27.07.2007 12:14

Intro:
Am                 C(add9)             A(sus4)
|------------------|-----------0------|------------------|
|---------0--_1----|-------1_3--------|-3-----3----------|
|--2---------------|------------------|---------2----2---|
|--------------2---|-2------------2---|---2-------2------|
|--0----0---0----0-|---3_0----------0-|-----0------0---0-|
|------------------|------------------|------------------|

 Am                 Em7                 B'ish
|------------------|---------0--------|-------0-----0----|
|-3---1---0-1------|-0-----3---3------|---3----------3---|
|-------------2_0--|-0-0-----------0--|---------0--------|
|---------------0--|-2-2--------------|------------------|
|--0----0----------|-2-----------2----|-2---2-----2----2-|
|------------------|-0---0------------|------------------|

 C(add9)                        
|------------------|--------0------0--|-0----------------|
|-3----------------|-3------3---------|-------3-----3----|
|---0--------0--0--|---0------0------0|---0-----0-----0--|
|-------2----------|------------------|------------------|
|-----3---3-------3|-----3------3-----|-----3-----3------|
|------------------|------------------|------------------|

                    Am  
|-0----------------|--0-----------0---|---3----0---------|
|---3------------0_1----1----1_3--1--1|--------1--3--1---|
|-----0---0------0_2----2----2-------2|-2---2----------2-|
|-----------2----0_2------------------|-2---2----------2-|
|-------2-----2----|------------------|------------------|
|------------------|------------------|------------------|

 Asus2                                  
|------------------|------------------|-0=======|===------|
|-----0-----0------|---0-----0---0----|-0=======|===------|
|-----2-2-----2---2|---------------2--|-2=======|===------|
|---2-----------2--|-2----2----------2|-2=======|===------|
|-0----------------|-----------0------|-0=======|===------|
|------------------|------------------|---------|---------|

0:32
 Am                                     F
|----0-------------|--0---------------|-1=======|==-------|
|----1-------------|------------------|-2=======|==-------|
|----2-------------|--2---------------|-3=======|==-------|
|----2-------------|--2---------------|-3=======|==-------|
|-0----------------|------------------|-3=======|==-------|
|------------------|------------------|-1=======|==-------|

 Am
|---------0--------|-0----------------|
|-1--1-1--1--------|-1=====-----------|
|-2--2-2--2--------|-2=====-----------|
|-2--2-2-----------|------------------|
|-0----------------|------------------|
|------------------|------------------|

 F
|-------0_1--------|-1===========-----|
|------1--1---x-x--|-1===========-----|
|-2-2--2--2---x-x--|-0===========-----|
|-3-3--3--3---x----|-3===========-----|
|-3-3--------------|------------------|
|-1----------------|------------------|

Intro Solo:
Am                                    F
|------------------|------------------|------------------|
|------------------|------------5-----|------------------|
|------------------|--------6---5---7-|-5---7--5--7--5--7|
|/7================|------------------|------------------|
|------------------|------------------|------------------|
|------------------|------------------|------------------|

                    Am
|-----------5---5--|-5---5=================5---5--8--5---|
|-------5_8---8---8|---8--------------|------8----------8|
|5--7^-------------|------------------|------------------|
|------------------|------------------|------------------|
|------------------|------------------|------------------|
|------------------|------------------|------------------|

 F                                     Am       
|5=====----5=====--|-5=====----5------|------------------|
|------------------|---------8----8---5------------------|
|------------------|------------------|-7-5-7-5-7-5-7-5===
|------------------|------------------|------------------|
|------------------|------------------|------------------|
|------------------|------------------|------------------|

                    F                 1:00
|------------------|------------------|-------0----------|
|------------------|------------------|-0_1_3----3---1_3-|
(5)=============---|7--5--------------|------------------|
|------------------|-----7--7=====----|------------------|
|------------------|------------------|------------------|
|------------------|------------------|------------------|

  Am                                   F
|---------------0--3----0-------------|------------------|
|-1_00-----0_1-----|------3---0--3--1_0---0_1---1========|
|-------2----------|------------------|-2----------------|
|------------------|------------------|------------------|
|------------------|------------------|------------------|
|------------------|------------------|------------------|

                    Am  
|--------------0---|------------------|------------------|
|-------0_1_3--3-3-|-1---3--1--0------|------1_3-3-1--0--|
|------------------|--------------2======-0--------------2
|------------------|------------------|------------------|
|------------------|------------------|------------------|
|------------------|------------------|------------------|

 F                                     Am
|------------------|------------------|------------------|
|-0--_1_-0---------|------------------|------------------|
|-----------2------|------------------|------------------|
|------------------|3-------2-3-2-0---|-2--0------0------|
|------------------|----------------3-|--------------3---|
|------------------|------------------|------------------|

                    F
|------------------|------------------|----------------0-|
|------------------|------------------|----------0-1-3---|
|------------------|------------------|------0-2---------|
|-0----------------|------------------0--2-3-------------|
|---3--2--3--2--0--|-0---0-0--0--2--3-|------------------|
|------------------|------------------|------------------|

  Am                                   F
|------/5----------|------------------|------------------|
|--------------5======-3-1-3-1-0---0--1-------0---3------|
|------------------|-------------2----|---------2--------|
|------------------|------------------|------------------|
|------------------|------------------|------------------|
|------------------|------------------|------------------|

                    Am  
|------------------|------------------|--0--------0------|
|-1---0----1-0-----|------------0--1--3--------------3--1|
|-------2-------2--2----------2-------|------------------|
|------------------|------------------|------------------|
|------------------|------------------|------------------|
|------------------|------------------|------------------|

 F                                     Am
|-1------1_0------1_0-----------------|-------0--0-------|
|-------------3----|---3----1-----3---0--3/5-----5--3--1-|
|------------------|------------------|------------------|
|------------------|------------------|------------------|
|------------------|------------------|------------------|
|------------------|------------------|------------------|

                    F
|------------------|------------------|-------0----------|
|1----0-1-0----0-1-|--0-------------0-|-1--3-----3--1--0-|
|-----------2------|----2------2------|------------------|
|------------------|------------------|------------------|
|------------------|------------------|------------------|
|------------------|------------------|------------------|

  Am                1:35               F
|-0--0----0--------|------------------|------------------|
|-1--1----1--------|------------------|----------------0-|
|-2--2----2--------|---------2--0--2--0--2----2--0--2----|
|-2-------2---x--x-|--x---------------|------------------|
|-0----------(0)(0)|-(0)--0-----------|------------------|
|------------------|------------------|------------------|

                    Am  
|--------------0=============---------|5_0_5_0_5_0_5_0_5_|
|-1-----3----------|------------------|------------------|
|------------------|------------------|------------------|
|------------------|------------------|------------------|
|------------------|------------------|------------------|
|------------------|------------------|------------------|

 F                                     Am
0_5================|--------5--3--5---5--3--0----0-------|
|------------------|------------------|------------------|
|------------------|------------------|------------------|
|------------------|------------------|------------------|
|------------------|------------------|------------------|
|------------------|------------------|------------------|

                    F
|--------3----_3---|3///5============================5__0|
|------------------|------------------|------------------|
|------------------|------------------|------------------|
|------------------|------------------|------------------|
|------------------|------------------|------------------|
|------------------|------------------|------------------|

Verse1:
Am 1:54         /            F               /
       Hello cowgirl in the sand. (repeat)

Am              /              F               /
     Is this place at your command.

C                   G          F(maj7)        G
       Can   I    stay   here   for    a    while

C                  G          F(maj7)         G
        Can   I   see  your   sweet  sweet smile

Dm          Em                  C              F
Old       enough   now    to  change  your    name.

Dm              Em              C           F
So  many        love  you   is  it  the    same      It's the

Dm              /                  C   Em       F
woman in you that make you wanna play this     game.


 F                      2:30            F       C
|-------3/5--------3--0---------------|-1--1----3--------|
|------------------|----3---1---------|-1--1----5--------|
|------------------|------------0_2---|-2--2----5--------|
|------------------|------------------|-3--3----5--------|
|------------------|------------------|-3--3----3--------|
|------------------|------------------|-1--1-------------|

                    E(m7)               A (vibrato)
|------------------|------------------|-0=================
|------------------|-3---3------------|-2=================
|-------4_2-4------|------------------|-2=================
|--5_2-------------|-2---2------------|-2=================
|------------------|-2---2------------|-0=================
|------------------|-0---0------------|------------------|

                                     Am
|====================================|-0--0--------------|
|=================|==================|-1--1--------------|
|=================|==================|-2--2--------------|
|=================|==================|-2-----------------|
|=================|==================|-0-----------------|
|=================|==================|

                    F
|------------------|------------------|------------------|
|x-1---------------|------------------|------------------|
|x-2---------------|----**** The Am/F rythym thang ****--|
|x-2---------------|------------------|------------------|
|-----------0-0-0-0|------------------|------------------|
|------------------|------------------|------------------|

  Am                                   F
|------------------|------------------|------------------|
|------------------|------------------|------------------|
|--- *** ----------|----------- *** --|------------------|
|------------------|------------------|------------------|
|------------------|------------------|------------------|
|------------------|------------------|------------------|

Solo1:
|---------12-12-12-12-12-12-12-12-12-12-12-12-12-12-12-12|
|------------------|------------------|------------------|
|------------------|------------------|------------------|
|------------------|------------------|------------------|
|------------------|------------------|------------------|
|------------------|------------------|------------------|

 F                                     Am
|12-12-12-12-12-12-12-12-12-12-12-12-12==================|
|------------------|------------------|------------------|
|------------------|------------------|------------------|
|------------------|------------------|------------------|
|------------------|------------------|------------------|
|------------------|------------------|------------------|

                    F
====12-10-12-10-12-|-10--//8----------|-7--8--7--10---8--|
|------------------|------------------|------------------|
|------------------|------------------|------------------|
|------------------|------------------|------------------|
|------------------|------------------|------------------|
|------------------|------------------|------------------|

 Am                                    F
|7--8--7------8--7-|----5-----5-----5-|-5----------------|
|------------------|-------8-----8----|------------------|
|------------------|------------------|------------------|
|------------------|------------------|------------------|
|------------------|------------------|------------------|
|------------------|------------------|------------------|

                    Am
|-3----3_5----3--3_5--3-------------12-12-13--15--13-12-12
|------------------|-----5======------|------------------|
|------------------|------------------|------------------|
|------------------|------------------|------------------|
|------------------|------------------|------------------|
|------------------|------------------|------------------|

 F                                     Am
13-12--------------|------------------|-------------15/17|
|---------13=======|15========-/20/22==========----------|
|------------------|------------------|------------------|
|------------------|------------------|------------------|
|------------------|------------------|------------------|
|------------------|------------------|------------------|

                    F   
15/1715/17-15/17---|20---19--17--19--20-----19---17-19--19
|------------------|-------20---------|------------------|
|------------------|------------------|------------------|
|------------------|------------------|------------------|
|------------------|------------------|------------------|
|------------------|------------------|------------------|

 Am                                    F        3:32
|-----19---19====--|/20\19--19--17---17-----------------0|
|------------------|------------------|--------0--1--3---|
|------------------|------------------|------------------|
|------------------|------------------|------------------|
|------------------|------------------|------------------|
|------------------|------------------|------------------|

                    Am          
|------------------|------------------|------------------|
|-3--1--3--1--0----|0--1----3---1--0--|----------0--1--3-|
|----------------2-|------------------2--0--2------------|
|------------------|------------------|------------------|
|------------------|------------------|------------------|
|------------------|------------------|------------------|

 F                                     Am
|-0----------------|---------0--------0----------------0-|
|---3--1--3--1---0-|-1-3--------3--1--0----3----1--3-----|
|------------------|------------------|------------------|
|------------------|------------------|------------------|
|------------------|------------------|------------------|
|------------------|------------------|------------------|

                    F   
|------------------|------------------|------------------|
|--3--1--0-----0---|1--3--1--0--------|0--1--3--1--------|
|-----------2------|------------------|------------------|
|------------------|------------------|------------------|
|------------------|------------------|------------------|
|------------------|------------------|------------------|

 Am                                    F
|------------------|------------------|------------------|
|0--1--3--5========|5--3--1----3--1--0|-0--1--0----------|
|------------------|------------------|---------2--------|
|------------------|------------------|--------------3---|
|------------------|------------------|------------------|
|------------------|------------------|------------------|

                    Am          
|------------------0================--|------------------|
|---------0--1--3--5================--|-3===---1--3---3--|
|--0--2------------|------------------|------------------|
|------------------|------------------|------------------|
|------------------|------------------|------------------|
|------------------|------------------|------------------|

 F                                     Am
|--1---------------|-----5------------|-----0============|
|-----1------------|---------8--------|------------------|
|--------2---------|------------------|------------------|
|------------------|------------------|------------------|
|------------------|------------------|------------------|
|------------------|------------------|------------------|

                    F   
|------------------|------------------|------------------|
|------------------|------------------|------------------|
|----77--5-7----7--|-----5------------|------------------|
|------------------|---------7--------|------------------|
|------------------|------------------|---------------0==|
|------------------|------------------|------------------|

 Am                                    F
|------------------|------------------|------------------|
|-1====------------|------------------|------------------|
|-2====------------*** rythym continues ***--------------|
|-2====------------|------------------|------------------|
|------------------|------------------|------------------|
|------------------|------------------|------------------|

                    Am  4:07    
|------------------|12===\\-----------|------------------|
|------------------|13===\\-----------|------------------|
|------------------|------------------|------------------|
|------------------|------------------|------------------|
|------------------|------------------|------------------|
|------------------|------------------|------------------|

 F                                     Am
|12====------------|12-------12-------|12------12---12-===
|15====------------|13-------13-------|15^(15)-15^--15^===
|------------------|------------------|------------------|
|------------------|------------------|------------------|
|------------------|------------------|------------------|
|------------------|------------------|------------------|

                    F   
====--------------17-17-17-----17-----17-----------------|
====---------------|----20^====20^====20^===20---20---20-|
|------------------|------------------|-----19---19^==19-|
|------------------|------------------|------------------|
|------------------|------------------|------------------|
|------------------|------------------|------------------|

 Am                        H   P               F
|------------------|------------------|---17-------------|
|------------------|-----17-----------|-----18--17-------|
17-17-19^(19)--17--|-----171919171717^(17)------19^(19)-17
|19----------19---19-17_19------------|------------------|
|------------------|------------------|------------------|
|------------------|------------------|------------------|

                    Am          
|------------17====|-5----------------|---------5---5----|
|------------17====|-5----------------|---5----8-5-8-5---5
|-17-19^(19)-------|---7^(7)---5--7_5-7^----7^---------8-|
19-----------------|---------7--------|------------------|
|------------------|------------------|------------------|
|------------------|------------------|------------------|

 F                                     Am
|58---5-----5------|------------------|------------------|
|--------8-----8---5------------------|------------------|
|------------------|--7--5--8--7--5---|-5----7---5--7_5_9|
|------------------|-----------------7|------------------|
|------------------|------------------|------------------|
|------------------|------------------|------------------|

                    F
|------------------|------------------|------------------|
|------------------|------------------|------------------|
_5---5-------------|------------------|------------------|
|--7---------7-5-7-7======================================
|------------------|------------------|------------------|
|------------------|------------------|------------------|

 Am                                    F
|------------------|------------------|------------------|
|------------------|------------------|------------------|
|------------------|------------------|------------------|
|------------------|------------------|------------------|
|------------------|------------------|------------------|

                    Am
|------------------|------------------|------------------|
        *** rythym of Am/F continues ***
|------------------|------------------|------------------|

                                     4:45 
 F                  (mute/muffle)::::::Am::::::::::::::::       
|------------------|------------------|------------------|
|------------------|------------------|------------------|
|------------------|------------------|------------------|
|------------------|------------------|------------------|
|------------------|------------------|------------------|
|------------------|------------------|--------5-5-5-5-5-|

::::::::::::::::::::F::::::::::::::::::::::::::::::::::::
|------------------|------------------|------------------|
|------------------|------------------|------------------|
|------------------|------------------|------------------|
|------------------|------------------|-----------5-7-5-7|
|--5-6-5-------5---7-5----------------|----5-7-----------|
|8-------8-5-8---8-|---8-5-5-5--------|5-8---------------|

 Am                                     F
|------------------|------------------|------------------|
|------------------|------------------|------------------|
|------5--7--8--7--|5--8--7--5-----5--7--5--8--7--5-----5|
|7--7--------------|------------7-----|--------------7---|
|------------------|------------------|------------------|
|------------------|------------------|------------------|

                    Am
|------------------|------------------|------------------|
|------------------|------------------|------------------|
|7--8--7--5--------|------------------|-----5--7--5--7--7|
|------------7-5-5-5-5--7-----7-----7-|---7--------------|
|------------------|------------------|------------------|
|------------------|------------------|------------------|

 F                                     Am
|------------------|------------------|------------------|
|------------------|------------------|------------------|
|5--5--------------|--------5--7--5---|-----5--7--8--7--5|
|-----7--7---7-----|----7-------------|--7---------------|
|------------------|------------------|------------------|
|------------------|------------------|------------------|


|------------------|------------------|------------------|
|------------------|------------------|------------------|
|8-----7--5-----5--7--8--7--5---------|---5---5---5--7-8-|
|------------7-----|-----------7--7--7|-7---7---7--------|
|------------------|------------------|------------------|
|------------------|------------------|------------------|


|--------------5--8|-7--5-----5----5--|------------------|
|5-8-7-5---5-------|-------8----8-----8--7--5------------|
|--------7---------|------------------|-----------7-5-7-5|
|------------------|------------------|------------------|
|------------------|------------------|------------------|
|------------------|------------------|------------------|

                    Am
|------------------|---5---5---5---5--|--5---------------|
|------------------|------------------|------------------|
|8--7--5----5--7--5|-7^--7^--7^--7^---7^---7^(7)7^(7)---5|
|--------7---------|------------------|---------------7--|
|------------------|------------------|------------------|
|------------------|------------------|------------------|

 F
|------------------|------------------|
|------------------|------------------|
|--------5--7^(7)__5-----5===========-|
|7-5-6-7-----------|--7---------------|
|------------------|------------------|
|------------------|------------------|

Verse2:
Am      5:20    /          F               /
       Hello ruby in the dust. (repeat)

Am              /            F               /
     Has your band begun to rust.

C              G        F(maj7)      G
       After  all  the  sin  we've  had.

C               G             F(maj7)       G
        I  was  hoping  that  we'd  turn   bad. 

Dm          Em                  C               F
Old       enough   now    to  change  your    name.

Dm              Em              C           F
So  many        love  you   is  it  the    same      It's the

Dm              /                 C    Em        F
woman in you that make you wanna play this     game.


 F                               6:00   F       C
|-------3/5--------3--0---------------|-1--1----3--------|
|------------------|----3---1---------|-1--1----5--------|
|------------------|------------0_2---|-2--2----5--------|
|------------------|------------------|-3--3----5--------|
|------------------|------------------|-3--3----3--------|
|------------------|------------------|-1--1-------------|

                    E(m7)               A (vibrato)
|------------------|------------------|-0=================
|------------------|-3---3------------|-2=================
|--2^-----2-0------|------------------|-2=================
|-------------2----|-2---2------------|-2=================
|------------------|-2---2------------|-0=================
|------------------|-0---0------------|------------------|

                                     Am
|=====================================|-0--0--------------|
|=====================================|-1--1--------------|
|=====================================|-2--2--------------|
|=====================================|-2-----------------|
|==================|==================|-0-----------------|
|==================|==================|

                    F
|------------------|------------------|------------------|
|x-1---------------|------------------|------------------|
|x-2---------------|----**** The Am/F rythym thang ****--|
|x-2---------------|------------------|------------------|
|-----------0-0-0-0|------------------|------------------|
|------------------|------------------|------------------|

  Am                                   F
|------------------|------------------|------------------|
|------------------|------------------|------------------|
|--- *** ----------|----------- *** --|------------------|
|------------------|------------------|------------------|
|------------------|------------------|------------------|
|------------------|------------------|------------------|

Solo2:
|------------------|-5---3--5---3--5_0|-5--0_5-5_0--5-0-5|
|------------------|------------------|------------------|
|-- *** -----------|------------------|------------------|
|------------------|------------------|------------------|
|------------------|------------------|------------------|
|------------------|------------------|------------------|

 F                                     Am
|0-5--0_5--0--3-3-0_3-5_0--88_5--8-0-5-0-8--0-5--05_0--5_0
|------------------|------------------|------------------|
|------------------|------------------|------------------|
|------------------|------------------|------------------|
|------------------|------------------|------------------|
|------------------|------------------|------------------|

                    F  
|3-3-0-3-3--3---5--8_0-5-0_5--0_8----0_8-0_8-0_8-0_8-0--8|
|-------------0----|------------------|------------------|
|------------------|------------------|------------------|
|------------------|------------------|------------------|
|------------------|------------------|------------------|
|------------------|------------------|------------------|

 Am                                    F
|-0--0-12--0-10--0-8--0-10--0-8--0-8--0-8_0-10-12_0-10_0-|
|------------------|------------------|------------------|
|------------------|------------------|------------------|
|------------------|------------------|------------------|
|------------------|------------------|------------------|
|------------------|------------------|------------------|

                    Am
|8_0-7_0-8_0-7_0-8_0--5_0---3_0---5_0-|--7__0--5__0--3__0|
|------------------|------------------|------------------|
|------------------|------------------|------------------|
|------------------|------------------|------------------|
|------------------|------------------|------------------|
|------------------|------------------|------------------|

 F                                     Am
|-5__0--3__0--5-0-3|-0======----------0----0-------------|
|------------------|----------3---1---|------1----1---1--3
|------------------|------------------|-------2_0---2----|
|------------------|------------------|------------------|
|------------------|------------------|------------------|
|------------------|------------------|------------------|

                    F
|--3--5--3--5--3--5|------5---5-------|------------------|
/5-----------------|-0--8---8---7^(7)_5---5---------5-7^-|
|------------------|------------------|-7---7-5-5-7------|
|------------------|------------------|------------------|
|------------------|------------------|------------------|
|------------------|------------------|------------------|

 Am                                    F
|5----5------------|---------------5/7/8\7\5--5----5--8^-|
|5----5-----------5|5---5-5-7-5-7--5/7/8\7\5--5--8-------|
|--7^----7^(7)_5--5|5---5-5-7-5-7-----|------------------|
|---------------7--|--7--7------------|------------------|
|------------------|------------------|------------------|
|------------------|------------------|------------------|

                    Am
|5-----5---5---5--5|-----5---5-----5--|-5--5----5--------|
|------------5-----|--8---------8-----|-------8---8--5---|
|---8--------------|------------------|----------------7^^
|------------------|------------------|------------------|
|------------------|------------------|------------------|
|------------------|------------------|------------------|

 F                                     Am 6:56
|------------------|----5----5---5----|--8---/9\---/8--8-|
|------5-----------|----5----5---5----5------/11\--/10---|
(7)5---5----------7|-7^---7^----------|------------------|
|----7----7--5_7---|------------------|------------------|
|------------------|------------------|------------------|
|------------------|------------------|------------------|

                    F
/8--8-------8------8-----8--9-------8-|---8-----8----8---|
/10-10--8/10--8/10-10--8/10-11-8/10---8/10--8/10---8/10--|
|------------------|------------------|------------------|
|--- *** this part was tough to tab out correctly *** ---|
|---------- *** but it is not hard to play *** ----------|
|------------------|------------------|------------------|

 Am                                    F
|6----8-------8----|-8-\-----8--6/9-\-|/8--8----/8-------|
|8/10-10--8/10--8/10-10\-8/10---8/10\-|/10--10\8/10-10-8/10
|------------------|------------------|------------------|
|------------------|------------------|------------------|
|------------------|------------------|------------------|
|------------------|------------------|------------------|

                    Am
8------8--------8--|--8----8------8---|-8-10-8-11-10-8---|
|-8/10-10--8/10-10-/10---10---/10----10----------------10|
|------------------|------------------|------------------|
|------------------|------------------|------------------|
|------------------|------------------|------------------|
|------------------|------------------|------------------|

 F                                     Am
|11-10-8---11-10-8-|-8-10-8-11-10-8---|11-10-8---11-10-8-|
|-------10-------10|---------------10-|-------10--------10
|------------------|------------------|------------------|
|------------------|------------------|------------------|
|------------------|------------------|------------------|
|------------------|------------------|------------------|

                    F
|11-10-8---8-10-8-11--10-8----11-10-8-|--8_10_8--11--10_8|
|-------11---------|-------10---------10-----------------|
|------------------|------------------|------------------|
|------------------|------------------|------------------|
|------------------|------------------|------------------|
|------------------|------------------|------------------|

 Am                                    F
|---8--10_8--11-10--8--11--10--8----8-|-11-10-8----8--10-|
|10----------------|-------------10---|----------10------|
|------------------|------------------|------------------|
|------------------|------------------|------------------|
|------------------|------------------|------------------|
|------------------|------------------|------------------|

                    Am
|---11--8---8_7--7-|------------------|------------------|
|------------------|------------------|------------------|
|------------------|------------------|------------------|
|------------------|------------------|------------------|
|------------------|------------------|------------------|
|------------------|------------------|------------------|

 F          7:30                       Am
|------------------|------------------|------------------|
|------------------|--10--------------|------------------|
|---------7--8--7--|--7--7\5----5-----|------------------|
|----7-10---------10----------7---7--5_7--7--7--7--7--7--7
|------------------|------------------|------------------|
|------------------|------------------|------------------|

                    F
|------------------|------------------|------------------|
|------------------|------------------|------------------|
|7=======----------|------------------|------------7-7_5-|
|------------------|------------------|------------------7
|------------------|---------3-----3--|-6-5_3-5_3-3------|
|------------------|0--5-3-5---3-5---5-5---------5-------|

Am                                     F        P P HP
|------------------|------------------|------------------|
|------------------|------------------|------------------|
|-7----------5-7_5-|8--7--5-----------|------------------|
|--7-------7-------|--------7_5--5-5--|--------------575-|
|------------------|------------7-----|------------57----|
|------------------|----------------3-|5_3-3_5---53------|

                    Am
|------------------|------------------|------------------|
|------------------|------------------|------------------|
|------------------|------------------|------------------|
|88-55/8--775------|2-----------------|------------------|
|------------775733|-----------3--55-7|5-3-5-5-3-5-3-----|
|------------------|---553--5---------|--------------5-3-|

                    F
|------------------|------------------|------------------|
|------------------|------------------|------------------|
|------------------|-------------55//7|---7--5//7--------|
|------------------|-----5-7-7--------|-----------7-7-7--|
|---------------3-/7-7_5--------------|------------------|
|5===---------5----|------------------|------------------|

 Am                                    F
|------------------|------------------|------------------|
|------------------|------------------|------------------|
|------------7_5--7^-5---5------------|--5_7-5---5_7-5---|
7===-------7-------|---7--------------|------------------|
|------------------|------------------|------------------|
|------------------|------------------|------------------|

                    Am
|------------------|------------------|--12==\==\==\==---|
|------------------|------------------|--12==\==\==\==---|
|------------------|------------------|------------------|
|-7------7--7----------------------|------------------|
|----------------------------------|------------------|
|----------------------------------|------------------|

 F       harmonics^                    Am
|--------------17--|-17---17--17---17-|-17----17-----17--|
|--------------20^-|-20^------20^-----|-20^---21^^-------|
|------------------|------------------|------------------|
|------------------|------------------|------------------|
|------------------|------------------|------------------|
|------------------|------------------|------------------|

                    F                   8:00
|-17----17---------17--17-----x-------|5-----------------|
|-21^---21^---20---|---20^-----x------|5-----------------|
|-------------19^--|------------x-----|--7^(7)5---5-7-5-7|
|------------------|------------------|---------7--------|
|------------------|----------------8-|------------------|
|------------------|------------------|------------------|

Verse3:
Am              /            F               /
       Hello woman of  my  dreams. (repeat)

Am              /               F               /
     Is this  not the  way it seems.

C               G       F(maj7)     G
       Purple words on a gray background.

C               G           F(maj7)     G
        To be a woman and to be turned down.    

Dm          Em                  C               F
Old       enough   now    to  change  your    name.

Dm              Em              C           F
So  many        love  you   is  it  the    same      It's the

Dm              /                  C   Em        F
woman in you that make you wanna play this     game.


 F                      8:30            F       C
|-------3/5--------3--0---------------|-1--1----3--------|
|------------------|----3---1---------|-1--1----5--------|
|------------------|------------0_2---|-2--2----5--------|
|------------------|------------------|-3--3----5--------|
|------------------|------------------|-3--3----3--------|
|------------------|------------------|-1--1-------------|

                    E(m7)               A (vibrato)
|------------------|------------------|-0=================
|------------------|-3---3------------|-2=================
|-----------0--2^--|------------------|-2=================
|------0--2--------|-2---2------------|-2=================
|---3--------------|-2---2------------|-0=================
|------------------|-0---0------------|------------------|

                                     Am (vib)
|====================================|-0=======----------|
|=================|==================|-1=======----------|
|=================|==================|-2=======----------|
|=================|==================|-2=======----------|
|=================|==================|-0=================|
|=================|==================|-------------------|


                    F
|------------------|------------------|------------------|
|------------------|-10==========================--------|
|------------------|-10==========================--------|
|------------------|-10==========================--------|
|=========---------|-8===========================--------|
|------------------|-8===========================--------|

  Am                                   F
|------------------|------------------|--1================
|1====================================|0-2================
|2====================================|0-2================
|2====================================|0-3================
|0====================================|--3================
|------------------|------------------|--1================

Solo3:
|================--|-5=====-----------|------------------|
|================--|------8======-5======----------------|
|================--|------------------|---7======-5=====-|
|================--|------------------|------------------|
|================--|------------------|------------------|
|================--|------------------|------------------|

 F                                  Am
|------------------|------------------|5=====------------|
|------------------|----------------5-|------8======5=====
|7======-5===================-5--7----|------------------|
|------------------|------------------|------------------|
|------------------|------------------|------------------|
|------------------|------------------|------------------|

                    F           
|------------------|------------------|------------------|
==-----------------|------------------|------------------|
|-7=======5======--7========-5==============---------5---|
|------------------|------------------|--------5--7--5---|
|------------------|------------------|-----------7------|
|------------------|------------------|------------------|

 Am                                     F
|------------------|5===------5----8--|--5-------------5-|
|------------------|5===-8------------|---------8--------|
|5=====-7=======---|------------------|------------------|
|5=====------------|------------------|------------------|
|------------------|------------------|------------------|
|------------------|------------------|------------------|

                    Am                                 
|------------5-----|------------------|------------------|
|----8-------5-----|------------------|------------------|
|------------------|-----7----5-----7-|-----5------7-----|
|------------------|------------------|------------------|
|------------------|------------------|------------------|
|------------------|------------------|------------------|

 F                                     Am
|------------------|------------------|------------------|
|------------------|---------5--------|------------------|
|-5------7------5--|----7----5__7-----|-----------5--7^-5|
|------------------|------------------|7----7--7--7------|
|------------------|------------------|0----0------------|
|------------------|------------------|------------------|

                    F/Am                                     
|------------------|----------------0-|------------------|
|---5----------5---|-1--1--1----------3^^--1-----1-------|
|-7-5-7^(7)5---5---|-2--2--2--2-------|------2-----------|
|------------7-----|-2--2-----2-------|------------------|
|------------------|-0--------0-0-0---|------------------|
|------------------|------------------|------------------|

 Am                                    F
|------------------|--0--0//3--5-5----|----8-10-8-10-8-10|
|----------1----3^(3)------------5---8/10----------------|
|-2--0--2----------|------------------|------------------|
|------------------|------------------|------------------|
|------------------|------------------|------------------|
|------------------|------------------|------------------|

                    Am
|-8-10-8-8------8-10----10----12----12|-10_8--8_10-8_10-8|
|------------10----|------------------|------------------|
|------------------|------------------|------------------|
|------------------|------------------|------------------|
|------------------|------------------|------------------|
|------------------|------------------|------------------|

 F                                     Am
|10------8---------|-5----------------|------------------|
|-----------10-----|------------------|------------------|
|------------------|----7^(7)-5--5-7^(7)_5_7---7_5_7_5_7-|
|------------------|-----------7------|------------------|
|------------------|------------------|------------------|
|------------------|------------------|------------------|

                    F           
|------------------|------------------|------------------|
|------------------|------------------|------------------|
|-7_0-7_0-7_0--7-7-|7--5--------------|-----5---7--5--7^==
|------------------|------7--5-----7--|--7---------------|
|------------------|-------------7----|------------------|
|------------------|------------------|------------------|

Am                                     F
|------------------|------------------|------------------|
|------------------|------------------|------------------|
===----------------|------------------|-----7^========(7)|
|------------------|------------------|------------------|
|------------------|------------------|------------------|
|------------------|------------------|------------------|

                    Am
|------------------|------------------|------------------|
|------------------|------------------|------------------|
|-5_0---5_7----5---|------------------|-----------5---7--|
|------------------|-----7------------|----5---7---------|
|------------------|------------------|------------------|
|------------------|------------------|------------------|

 F                               10:00 Am
|------------------|------------------|------------------|
|------------------|------------------|------------------|
|5=================|------------------|------------------|
|------------------|------------------|------------------|
|------------------|------------------|------------------|
|------------------|------------------|------------------|





Comments


Popular Neil Young tabs & chords
After The Garden Chords
Out On The Weekend 2 Chords
Silver And Gold Chords
Tom Dula Chords
Keep On Rockin' In The Free World Tabs
Pardon My Heart Tabs
Rockin In The Free World 3 Tabs
Dont Be Denied Ukulele
Down To The Wire Ukulele
Speakin Out Ukulele


Song lyrics



↑ Back to top | Tablatures and chords are parodies/interpretations of the original songs. You may use it for private study, scholarship, research or language learning purposes only
© 2014 AZChords.com Contact us | Privacy policy | DMCA | Add/correct tabs | Request tabs | Top 50 tabs