» » »

On Wings Of Integrity Tabs (ver.3)

Artists:  A B C D E F G H I J K L M N O P Q R S T U V W X Y Z # 

On Wings Of Integrity Tabs (ver.3)

Mychildren Mybride
Rating:
5/5 (2 votes)

Hard to play? Try these video lessons and learn fast.
                mcmb-on wings of integrity breakdown


                                          2 TIMES
  1:31
-----------------------------|--------------------------------------------------------|----|
-----------------------------|--------------------------------------------------------|----|
-----------------------------|--------------------------------------------------------|----|
-----------------------------|--------------------------------------------------------|-0--|
----0000-0-00--0000-0-00-----|--0000-0-00-0000-0-00-0000-0-0000-0-00-0000-0-00-00-00--|-0--|
----0000-0-00--0000-0-00-----|--0000-0-00-0000-0-00-0000-0-0000-0-00-0000-0-00-00-00--|-0--|
 pm----------------------------------------------------------------------------------------|pm


----------------------------------------------------------------------------------|
----------------------------------------------------------------------------------|
----------------------------------------------------------------------------------|
--------8-------7------------8-----5-7------------8-------------------------------|
--------6-------5------------6-----3-5------------6-------------------------------|
----0-0---0-0-4---0------0-0---0-0-----0------0-0---0-0-1-4-----0-0-0-0-1-1-1-1-4-|
pm the opens in this part
            
Hard to play? Try these video lessons and learn fast. | Correct




comments powered by Disqus
↑ Back to top | Tablatures and chords are parodies/interpretations of the original songs. You may use it for private study, scholarship, research or language learning purposes only