» » »

Mychildren Mybride, On Wings Of Integrity Tabs (ver.1)

Artists:  A B C D E F G H I J K L M N O P Q R S T U V W X Y Z # 

On Wings Of Integrity Tabs (ver.1)

Mychildren Mybride Tabs
 Rating:
3/5 (6 votes)
On Wings Of Integrity lessons Tabs too difficult? Try these video lessons and learn fast
                Band: MyChildren MyBride 

... = Palm mute
/ = slide up
\ = slide down
~ = let note ring out
: = Staccato (don't let note ring out, mute sound quickly)
" = tremolo pick


Tuning : Drop B


The only tab on here for this song is actually the bass tab so I figured I'd 
finally put a decent guitar tab up for it. This should be 99% correct (I made a few 

corrections from the last one I submitted), but if you notice any more mistakes PM 
me and I'll correct. Listen to the song while reading the tab to get the timing 

completely right.


Intro/1st Verse:                                                 x4
|------------------------------------|----------------|---------|
|------------------------------------|----------------|---------|
|------------------------------------|----------------|---------|
|-1-0-1-----0---1-0-1-/5-4--0-1-0-0--|----------------|---------|
|-1-0-1-0-0-0---1-0-1-/5-4--0-1-0-0--|----------------|---------|
|-1-0-1-0-0-0---1-0-1-/5-4--0-1-0-0--|--/5-4-0-/8-7\--|--8"-5"--|
        ...     ..... 

                                                                                x2
|------------------------------------------------------------|--------|--------|
|------------------------------------------------------------|--------|--------|
|------------------------------------------------------------|--------|--------|
|--0-------------1-1-0---------5-4-5-4---------4-1-4-1-------|--------|--------|
|--0-0-0-0-0-0-0-1-1-0-0-0-0-0-5-4-5-4-0-0-0-0-4-1-4-1-0-0-0-|--------|--------|
|--0-0-0-0-0-0-0-1-1-0-0-0-0-0-5-4-5-4-0-0-0-0-4-1-4-1-0-0-0-|-/8-7\--|-/8~-7\-|
     ...........       .......         .......         ......


1st Breakdown:                                      x2
|--------------------------------------------------|
|--------------------------------------------------|
|--------------------------------------------------|
|--------------------------------------------------|
|-00-00----0-0--00-0000-0-0-00---0-00-0--0-00-0-0--|
|-00-00----0-0--00-0000-0-0-00---0-00-0--0-00-0-0--|
  .. ..    . .  .. .... . . ..   . .. .  . .. . .


2nd Verse/ 2step:
|------------------------------------------------------------------------|    \
|------------------------------------------------------------------------|     \
|------------------------------------------------------------------------|      \
|--8-7-------------8-7---5---7---8-8-7--------------8-7---5---7---5-5/7--|       | 
|--6-5-0-0-0-0-0-0-6-5---3---5---6-6-5-0-0-0-0-0000-6-5---3---5---3-3/5--|       |
|------0-0-0-0-0-0-----0---0---0-------0-0-0-0-0000-----0---0---0--------|       |
       ...........     .   .   .       ............     .   .   .               x2
                                                   -                              |
|-----------------------------------------------------------------|               |
|-----------------------------------------------------------------|               |
|-----------------------------------------------------------------|               |
|--------------8-7---5---7---7-7/5---------------7-6---3---6------|              /
|-0-0-0-0-0000-6-5---3---5---5-5/3-0-0-0-0-0-0-0-7-6-0-3-0-6-0-0--|             /
|-0-0-0-0-0000-----0---0---0-------0-0-0-0-0-0-0-7-6-0-3-0-6-0-0--|            /
 .............     .   .   .       ............      .   .   . .


Pre-Breakdown:
|-----------------------------------------------------|
|-----------------------------------------------------|
|-----------------------------------------------------|
|--7-6-3~-6-6-6--6-3-1~-4-4-1-------------------------|
|--7-6-3~-6-6-6--6-3-1~-4-4-1-------------------------|
|--7-6-3~-6-6-6--6-3-1~-4-4-1-00000-0-00:-0000-0-00:--|

WE WILL SOAR!

Breakdown 2:
|--------------------------------------------------------------------|
|--------------------------------------------------------------------|
|--------------------------------------------------------------------|
|-0000~-0-00~-0000~-0-00~-0000~-0~--0000~-0-00~-0000~-0-00~-00:-00:--|
|-0000~-0-00~-0000~-0-00~-0000~-0~--0000~-0-00~-0000~-0-00~-00:-00:--|
|-0000~-0-00~-0000~-0-00~-0000~-0~--0000~-0-00~-0000~-0-00~-00:-00:--|
  ....  . ..  ....  . ..  ....  .   ....  . ..  ....  . ..  ..  ..

|--------------------------------------------------------------------|
|--------------------------------------------------------------------|
|--------------------------------------------------------------------|
|-0000~-0-00:-0000~-0-00:-0000~-0:--0000~-0-00:-0000~-0-00:-00:-00:--|
|-0000~-0-00:-0000~-0-00:-0000~-0:--0000~-0-00:-0000~-0-00:-00:-00:--|
|-0000~-0-00:-0000~-0-00:-0000~-0:--0000~-0-00:-0000~-0-00:-00:-00:--|
  ....  . ..  ....  . ..  ....  .   ....  . ..  ....  . ..  ..  ..


Bridge:
Guitar 1:
|------------------------------------------------------------------|
|------------------------------------------------------------------|
|------------------------------------------------------------------|
|--0~~~~~~~~~~~~~~~~--0~~~------8-----5~/7-0~~~~~~~~~~~~~~~~~~~~---|
|--0~~~~~~~~~~~~~~~~--0~~~--0-0-6-0-0-3~/5-0~~~~~~~~~~~~~~~~~~~~---|
|--0~~~~~~~~~~~~~~~~--0~~~--0-0---0-0------0~~~~~~~~~~~~~~~~~~~~---|
                            ...   ...

Guitar 2:
|------------------------------------------------------------------|
|------------------------------------------------------------------|
|------------------------------------------------------------------|
|--0~~~------3-----6~-0~~~------8-----5~/7-0~~~-----7-----3~/6-0~--|
|--0~~~--0-0-3-0-0-6~-0~~~--0-0-6-0-0-3~/5-0~~~-0-0-7-0-0-3~/6-0~--|
|--0~~~--0-0-3-0-0-6~-0~~~--0-0---0-0------0~~~-0-0-7-0-0-3~/6-0~--|
         ...   ...          ...   ...           ...   ...      

both Guitars:
|-------------------|
|-------------------|
|-------------------|
|-0-0-0-1-1-1-1-4:--|
|-0-0-0-1-1-1-1-4:--|
|-0-0-0-1-1-1-1-4:--|
  ............. 


2nd 2step:
|--------------------------------------------------------------|
|--------------------------------------------------------------|
|--------------------------------------------------------------|
|--0~-----0~------0~------1-----4\-----0~-------8-7---5-7-8-7\-|
|--0~-0-0-0~-0000-0~-0000-1-0-1-4\-0-0-0~-00000-6-5---3-5-6-5\-|
|--0~-0-0-0~-0000-0~-0000-1-0-1-4\-0-0-0~-00000-----0----------|
      ...    ....    ....   ...    ...    ....      .          
--------------------------------------------------------|
--------------------------------------------------------|
--------------------------------------------------------|
----0~------0~------4-----1/4-----0~-------7-----3---6--|
0-0-0~-0000-0~-0000-4-0-0-1/4-0-0-0~-00000-7-0-0-3-0-6--|
0-0-0~-0000-0~-0000-4-0-0-1/4-0-0-0~-00000-7-0-0-3-0-6--|
...    ....    ....   ...     ...    .....   ...   .


REPEAT BUT SLOWER (Breakdown 3)

Outro:
|-------------------------|
|-------------------------|
|-------------------------|
|--0000-1-0-0-0-4-3-1-0:--|
|--0000-1-0-0-0-4-3-1-0:--|
|--0000-1-0-0-0-4-3-1-0:--|
   ....   .....
            
Submit corrections

comments powered by Disqus
↑ Back to top | Mychildren Mybride Tabs for On Wings Of Integrity. Lyrics for acoustic guitar and electric guitar. Tablatures and chords are parodies/interpretations of the original songs. You may use it for private study, scholarship, research or language learning purposes only