» » »

On Wings Of Integrity Bass tabs (ver.1)

Artists:  A B C D E F G H I J K L M N O P Q R S T U V W X Y Z # 

On Wings Of Integrity Bass tabs (ver.1)

Mychildren Mybride
Rating:
5/5 (2 votes)

Hard to play? Try these video lessons and learn fast.
                The tuning is:(4)B(3)F#(2)B(1)E
Set your metronome to a moderate=133
I think this is right
I numbered all of the measures
Each hyphen(-) is 1/16 of a measure
  1                2                3                4               
E |----------------|----------------|----------------|----------------|
B |----------------|----------------|----------------|----------------|
F#|----------------|----------------|----------------|----------------|
B |-1-0-1----0-0-0-|--1-0-1--5-4-0--|--1--0--0-------|--5--4--1--5--4-|
5                6                7           
|----------------|----------------|----------------|        
|----------------|----------------|----------------|
|----------------|----------------|----------------|
|-1-0-1----0-0-0-|--1-0-1--5-4-0--|--1----0----0---|
8
|----------------|
|----------------|
|----------------|
|5555555511111111|
Repeat measures 1-8

9                10               11               12 
|----------------|----------------|----------------|----------------|
|----------------|----------------|----------------|----------------|
|----------------|----------------|----------------|----------------|
|1-0-0-0-0-0-0-1-|1-0-0-0-0-0-5-4-|5-4-0-0-0-0-4-1-|4-1-0-0-0-5-4---|

13               14               15               16
|----------------|----------------|----------------|----------------|
|----------------|----------------|----------------|----------------|                
|----------------|----------------|----------------|----------------|
|1-0-0-0-0-0-0-1-|1-0-0-0-0-0-5-4-|5-4-0-0-0-0-4-1-|4-1-0-0-5----4--| 

17               18               19               20
|----------------|----------------|----------------|----------------|
|----------------|----------------|----------------|----------------|
|----------------|----------------|----------------|----------------|
|0-0-0-0---------|-0--0-0-0---0000|-0--0--0-0-----0|0-0--0-0-0-0--0-|
Repeat measures 17-20

21               22               23               24
|----------------|----------------|----------------|----------------|
|----------------|----------------|----------------|----------------|
|6-5-------------|6-5---3---5---6-|6-5-------------|6-5---3---5---3-|
|----0-0-0-0-0-0-|----0---0-------|----0-0-0-0-0-0-|----0---0---0---|

25               26               27               28
|----------------|----------------|----------------|----------------|
|----------------|----------------|----------------|----------------|
|3-5-------------|6-5---3---5---5-|5-3-------------|----------------|
|----0-0-0-0-0-0-|----0---0---0---|----0-0-0-0-0-0-|6-5---3----5---3|

29               30               31               32
|----------------|----------------|----------------|----------------|
|----------------|----------------|----------------|----------------|
|6-5-------------|6-5---3---5----6|6-5-------------|6-5---3----5---3|
|----0-0-0-0-0-0-|----0---0-------|----0-0-0-0-0-0-|----------------|

33               34               35               36
|----------------|----------------|----------------|----------------|
|----------------|----------------|----------------|----------------|
|3-5-------------|6-5---3---5---5-|5-3-------------|----------------|
|----0-0-0-0-0-0-|----0---0---0---|----0-0-0-0-0-0-|6-5---3---5---5-|

37
|----------------|
|----------------|
|----------------|
|3-1---0--3-1-0--|
            
Hard to play? Try these video lessons and learn fast. | Correct




comments powered by Disqus
↑ Back to top | Tablatures and chords are parodies/interpretations of the original songs. You may use it for private study, scholarship, research or language learning purposes only