>
 >
Hooligans

Hooligans Guitar Tabs

Mychildren Mybride - Hooligans chords, tabs, tablatures, lyrics

Guitar lessons | Add/correct | Request | Top 50 tabs Artists:  A B C D E F G H I J K L M N O P Q R S T U V W X Y Z 0-9

Hooligans Guitar Tabs – Mychildren Mybride

CD, Sheet music, Poster

Do you like Hooligans? Share with your friends now
Bass TabsTabsTabs v2
-------------------------------------------------------------
  Hooligans- Mychildren Mybridge
-------------------------------------------------------------



Tuning: Drop B

Beginning
C#|----------------|
G#|----------------|
 E|----------------|
 B|----------------|
F#|-8-5-10-5~------|
 B|-8-5-10-5~------|


Verse Uno
C#|-----------------------|
G#|-----------------------|
 E|-----------------------|
 B|-----------------------|
F#|-5--1-0-4---5--4-1-0---| x4
 B|-5~-1-0-4~--5~-4-1-0~--|
       . .        . .

Verse Dos
C#|-------------------------------------------------------|
G#|-------------------------------------------------------|
 E|-------------------------------------------------------|
 B|-5------8------1------4-------5------8------111-1-4-4--|
F#|-5-[x4]-8-[x4]-1-[x4]-4-------5-[x4]-8-[x4]-111-1-4-4--| x2
 B|-5------8------1------4-------5------8------111-1-4-4--|


Verse Tres
C#|----------------|
G#|----------------|
 E|----------------|
 B|--5--1--4-------|
F#|--5--1--4-------| x4
 B|--5~-1~-4~------|

Verse Cuatro 
C#|--------------------------|
G#|--------------------------|
 E|--------------------------|
 B|-5------1------4----------|
F#|-5-[x4]-1-[x4]-4--[x8]----| x4
 B|-5------1------4----------|

annnd harmony

C#|---------------------------|
G#|---------------------------|
 E|-11------6------9----------|
 B|--x------x------x----------|
F#|--8-[x4]-4-[x4]-7--[x8]----| x4
 B|---------------------------|



Verse Uno Again
C#|----------------------------------------|
G#|----------------------------------------|
 E|----------------------------------------|
 B|----------------------------------------|
F#|-5--1-0-4---5--4-1-0--------------------| x4
 B|-5~-1-0-4~--5~-4-1-0~---(drum triplets)-|
       . .        . .


Verse Cinco
C#|-------------------------------|
G#|-------------------------------|
 E|-------------------------------|
 B|--5-----------------------5-4-4-|
F#|--5-----------------------5-4-4-| x2
 B|--5~-(What Goes Around..)-5-4-4-|
                             .

Verse Dos Again
C#|-------------------------------------------------------|
G#|-------------------------------------------------------|
 E|-------------------------------------------------------|
 B|-5------8------1------4-------5------8------111-1-4-4--|
F#|-5-[x4]-8-[x4]-1-[x4]-4-------5-[x4]-8-[x4]-111-1-4-4--| x2
 B|-5------8------1------4-------5------8------111-1-4-4--|


 Verse 6(Breakdown!)
C#|-----------------------|
G#|-----------------------|
 E|-----------------------|
 B|-----------------------|
F#|--000-00000000-000-000-| x4
 B|--000-00000000-000-000-|
     ... ........ ... ...


If there are any questions, e-mail me.





Comments


Popular Mychildren Mybride tabs & chords
On Wings Of Integrity Bass Tabs
Choke Intro Tabs
Circle The Sky Tabs
Circle The Sky 2 Tabs
Every Moment Tabs
Headshot Intro Tabs
Headshot! 2 Tabs
Hooligans 1 Tabs
On Wings Of Integrity Tabs
On Wings Of Integrity 1 Tabs


Song lyrics



↑ Back to top | Tablatures and chords are parodies/interpretations of the original songs. You may use it for private study, scholarship, research or language learning purposes only
© 2014 AZChords.com Contact us | Privacy policy | DMCA | Add/correct tabs | Request tabs | Top 50 tabs