» » »

Mychildren Mybride, Hooligans Tabs (ver.2)

Artists:  A B C D E F G H I J K L M N O P Q R S T U V W X Y Z # 

Hooligans Tabs (ver.2)

Mychildren Mybride Tabs
 Rating:
4.2/5 (5 votes)
Hooligans lessons Tabs too difficult? Try these video lessons and learn fast
1
                -----------------------------------------------------------------------------
                             Hooligans - Mychildren Mybride
-----------------------------------------------------------------------------

Tuning: Drop C

Super easy song, but pretty fun to play. Enjoy! :D

Intro:

D|---------------------------------------------------------------------------|
A|---------------------------------------------------------------------------|
F|---------------------------------------------------------------------------|
C|7-4-9-5--------------------------------------------------------------------|
G|7-4-9-5--------------------------------------------------------------------|
C|7-4-9-5--------------------------------------------------------------------|

Verse 1:

D|---------------------------------------------------------------------------|
A|---------------------------------------------------------------------------|
F|----------------------------------------------------------------------x5---|
C|5~-5-4~---5~-4-0~----------------------------------------------------------|
G|5~-5-4~---5~-4-0~----------------------------------------------------------|
C|5~-5-4~---5-~4-0~----------------------------------------------------------|
     .         .

PreChorus 1:

D|---------------------------------------------------------------------------|
A|---------------------------------------------------------------------------|
F|---------------------------------------------------------------------------|
C|55555555-------------------------------------------------------------------|
G|55555555-------------------------------------------------------------------|
C|55555555-------------------------------------------------------------------|
  ........

Chorus:

D|---------------------------------------------------------------------------|
A|---------------------------------------------------------------------------|
F|---------------------------------------------------------------x4----------|
C|5555--8888--2222--4444-----------------------------------------------------|
G|5555--8888--2222--4444-----------------------------------------------------|
C|5555--8888--2222--4444-----------------------------------------------------|

Verse 2:

D|----------------------------------------------------------------------x4----|
A|----------------------------------------------------------------------------|
F|----------------------------------------------------------------------------|
C|5~~~~--2~~~~--4~~~~---------------------------------------------------------|
G|5~~~~--2~~~~--4~~~~---------------------------------------------------------|
C|5~~~~--2~~~~--4~~~~---------------------------------------------------------|

D|----------------------------------------------------------------------------|
A|----------------------------------------------------------------------------|
F|----------------------------------------------------------------------------|
C|5------2------4-------------------------------------------------------------|
G|5------2------4-------------------------------------------------------------|
C|5(x4)--2(x4)--4(x8)---------------------------------------------------------|

(Verse 1)

PreChorus 2:

D|---------------------------------------------------------------------------|
A|---------------------------------------------------------------------------|
F|---------------------------------------------------------------------------|
C|5~~~~~~~~~---------54--45---------------------------------------54---4-----|
G|5~~~~~~~~~---------54--45---------------------------------------54---4-----|
C|5~~~~~~~~~---------54--45---------------------------------------54---4-----|

(Chorus)

Breakdown:

D|----------------------------------------------------x4---------------------|
A|---------------------------------------------------------------------------|
F|---------------------------------------------------------------------------|
C|000-000000-000-000---------------------------------------------------------|
G|000-000000-000-000---------------------------------------------------------|
C|000-000000-000-000---------------------------------------------------------|
  ... ...... ... ...

Thanks guys. I hope it's right. haha

Order:
Intro
Verse 1
PreChorus
Chorus
Verse 2
Verse 3 (Which is the same as verse 1)
PreChorus 2
Chorus
Breakdown.
************************************

| /   slide up
| \   slide down
| h   hammer-on
| p   pull-off
| ~   vibrato
| +   harmonic
| x   Mute note
| b   Bend
| pb  Pre-bend
| br  Bend release
| pbr Pre-bend release
| brb Bend release bend

*****************************
            
Submit corrections

comments powered by Disqus
↑ Back to top | Mychildren Mybride Tabs for Hooligans. Lyrics for acoustic guitar and electric guitar. 1 Tablatures and chords are parodies/interpretations of the original songs. You may use it for private study, scholarship, research or language learning purposes only