» » »

Mychildren Mybride, Hooligans Bass tabs (ver.1)

Artists:  A B C D E F G H I J K L M N O P Q R S T U V W X Y Z # 

Hooligans Bass tabs (ver.1)

Mychildren Mybride Tabs
 Rating:
4/5 (4 votes)
Hooligans lessons Tabs too difficult? Try these video lessons and learn fast
1
                ----------------------------------------------------------------------------
----------------------------------------------------------------------------


Tuning: Drop B

Beginning
 E|----------------|
 B|----------------|
F#|----------------|
 B|-8-5-10-5~------|


Verse 1
 E|-----------------------|
 B|-----------------------|
F#|-----------------------| x4
 B|-5~-1-0-4~--5~-4-1-0~--|

Verse 2
 E|--------------------------------------------------------|
 B|--------------------strummed----------------------------|
F#|--------------------------------------------------------| x2
 B|-5-[x4]-8-[x4]-1-[x4]-4-[x4]---5-[x4]-8-[x4]-111-1-4-4--|

Verse 3
 E|----------------|
 B|----------------|
F#|----------------| x4
 B|--5~-1~-4~------|

Verse 4 
 E|--------------------------|
 B|--------------------------|
F#|--------------------------| x4
 B|-5-[x4]-1-[x4]-4-[x8]-----|

Verse 1 Again
 E|-----------------------|
 B|-----------------------|
F#|-----------------------| x4
 B|-5~-1-0-4~--5~-4-1-0~--|

Only difference is bass drum doing triplets

Verse 5
 E|-------------------------------|
 B|-------------------------------|
F#|-------------------------------| x2
 B|--5~-(What Goes Around..)--4-4-|

There may be a bass slide here, do it for fun, right?

 Verse 2 Again 
 E|--------------------------------------------------------|
 B|--------------------strummed----------------------------|
F#|--------------------------------------------------------| x4
 B|-5-[x4]-8-[x4]-1-[x4]-4-[x4]---5-[x4]-8-[x4]-111-1-4-4--|  

 Verse 6(Breakdown!)
 E|-----------------------|
 B|-----------------------|
F#|-----------------------| x4
 B|--000-00000000-000-000-|
This sounds like there are 3 triplets at the end of the breakdown,
but its just repeating itself

If there are any questions, e-mail me.
            
Submit corrections

comments powered by Disqus
↑ Back to top | Mychildren Mybride Bass for Hooligans. Lyrics for acoustic guitar and electric guitar. 1 Tablatures and chords are parodies/interpretations of the original songs. You may use it for private study, scholarship, research or language learning purposes only