>
 >
Headshot! 1

Headshot! 1 Guitar Tabs

Mychildren Mybride - Headshot! 1 chords, tabs, tablatures, lyrics

Guitar lessons | Add/correct | Request | Top 50 tabs Artists:  A B C D E F G H I J K L M N O P Q R S T U V W X Y Z 0-9

Headshot! 1 Guitar Tabs – Mychildren Mybride

CD, Sheet music, Poster

Do you like Headshot! 1? Share with your friends now
Bass TabsTabsTabs v2Tabs v3
Headshot Guitar Tab


Tuning: b F# b E G# C#

(0:00-0:27)
C#--------------------------------------------------------------------------|
G#--------------------------------------------------------------------------|
E --------------------------------------------------------------------------|
b --------------------------------5---5-------8---7-------0---0-------0---0-|
F#-------8---5-------10---7-4-4-4---4---4-4-4---4---1-1-1---1---1-1-1---1---|
b -0-0-0---0---0-0-0----0---------------------------------------------------|

  ---------------------------------------------------------------------------|
  ---------------------------------------------------------------------------|
  ---------------------------------------------------------------------------|
  -------2333-3-3-2-2-2--------------------------------5---5-------8-7-------|
  -0-0-0-4555-5-5-4-4-4-------8---5-------10---7-4-4-4---4---4-4-4-----1-1-1-|
  ----------------------0-0-0---0---0-0-0----0-------------------------------|

  -------------------------------------|
  -------------------------------------|      (Play this whole part 2x)
  -------------------------------------|
  -0---0-------0---0-------------3---2-|
  ---1---1-1-1---1---0-0-0-4-0-0-5---4-|
  -------------------------------------|

(0:28-0:55)
C#-------------------------------------------------------------------------|
G#-------------------------------------------------------------------------|
E -------------------------------------------------------------------------|
b ---------------------------------------------555-------------------------|
F#-555------5554444455777000888------8887777788----------------------------|
b ----000000-------------------888888-------------888888555555888777333333-|

  -----------------------------|
  -----------------------------|      (Play this whole part 2x)
  -----------------------------|
  ----------222222555222555888-|
  -----------------------------|
  -555222222-------------------|

(0:56-1:24)
C#-----------------------------------------------------------------------|
G#-----------------------------------------------------------------------|
E -----------------------------------------------------------------------|
b -------------------------------------8-----7---2-----------2-----------|
F#-8-5---------8-5---------5-----8-----------------3-1-1-1-1---3-1-1-1-1-|
b -----0-0-0-0-----0-0-0-0---0-0---0-0---0-0-----------------------------|

  -------------------------------------------------------------------|
  -------------------------------------------------------------------|
  -------------------------------------------------------------------|
  -0-----2-----3-----2-----------------------------------------------|
  ---1-1---1-1---1-1-----5-----------5-----5-----7-----------7-----7-|
  -------------------------5-5-5-5-5---5-5---5-5---7-7-7-7-7---7-7---|

  ---------------------------------------------|
  ---------------------------------------------| (Play this whole part 2x)
  ---------------------------------------------|
  ---------------------------------------------|
  -------8-5-8-------8-5-8-4-5-7-5-7-8-5-7-8-5-|
  -0-0-0-------0-0-0---------------------------|

(1:24-1:25)
C#----------|
G#----------|
E ----------|
b ----------|
F#-5------4-|
b -8------7-|

(1:26-1:33)
C#-----------------------------|
G#-----------------------------|
E -----------------------------|
b -00-00----0-00--00-0000-0-00-| (2x)
F#-00-00----0-00--00-0000-0-00-|
b -00-00----0-00--00-0000-0-00-|

(1:33-1:40)
C#----------------------------------------------|
G#----------------------------------------------|
E ----------------------------------------------|
b -0-0--------0--0-0-0-0-0-0-0--------000--0000-|  (Sustain)
F#-0-0--------0--0-0-0-0-0-0-0--------000--0000-|
b -0-0--------0--0-0-0-0-0-0-0--------000--0000-|

(1:40-1:47)
C#----------------------------------------------|
G#----------------------------------------------|
E ----------------------------------------------|
b -0-0--------0--0--0--0-0-0-0--------000--0000-|
F#-0-0--------0--0--0--0-0-0-0--------000--0000-|
b -0-0--------0--0--0--0-0-0-0--------000--0000-|

(1:47-2:01)
C#-----------------------------------------------------------------|
G#-----------------------------------------------------------------|
E -----------------------------------------------------------------|
b -3-0-0-3-0-0-0-1-3-0-3-0-1-3-1-0-6-0-0-6-0-0-0-3-6-0-0-6-0-0-0-0-|  (2x)
F#-3-0-0-3-0-0-0-1-3-0-3-0-1-3-1-0-6-0-0-6-0-0-0-3-6-0-0-6-0-0-0-0-|
b -3-0-0-3-0-0-0-1-3-0-3-0-1-3-1-0-6-0-0-6-0-0-0-3-6-0-0-6-0-0-0-0-|

(2:01-2:15)
C#------------------------------------------------------------------------|
G#------------------------------------------------------------------------|
E ------------------------------------------------------------------------|
b -6-5-3-5--6-5-0-------6-5-3-5--6-5-2--2-2-3--3-5---6-5-3-5--6-5-0-------|
F#-6-5-3-5--6-5-0-------6-5-3-5--6-5-2--2-2-3--3-5---6-5-3-5--6-5-0-------|
b -6-5-3-5--6-5-0-------6-5-3-5--6-5-2--2-2-3--3-5---6-5-3-5--6-5-0-------|

  -----------------------------|
  -----------------------------|
  -----------------------------|
  -6-5-3-5--6-5-2--2-2-2-2-2-3-|
  -6-5-3-5--6-5-2--2-2-2-2-2-3-|
  -6-5-3-5--6-5-2--2-2-2-2-2-3-|

(2:16-2:30)
C#------------------------------------------------------|
G#------------------------------------------------------|
E ------------------------------------------------------|  (2x)
b -6-5-3-5--6-5-0--0-0-0-0-0-0-6-5-3-5--0--3--3-3-3-3-5-|
F#-6-5-3-5--6-5-0--0-0-0-0-0-0-6-5-3-5--0--3--3-3-3-3-5-|
b -6-5-3-5--6-5-0--0-0-0-0-0-0-6-5-3-5--0--3--3-3-3-3-5-|

(2:30-2:43)
C#-----------------------------------------------------------------|
G#-----------------------------------------------------------------|
E -----------------------------------------------------------------| (2x)
b -3-0-0-3-0-0-0-1-3-0-3-0-1-3-1-0-6-0-0-6-0-0-0-3-6-0-0-6-0-0-0-0-|
F#-3-0-0-3-0-0-0-1-3-0-3-0-1-3-1-0-6-0-0-6-0-0-0-3-6-0-0-6-0-0-0-0-|
b -3-0-0-3-0-0-0-1-3-0-3-0-1-3-1-0-6-0-0-6-0-0-0-3-6-0-0-6-0-0-0-0-|

(2:44-3:26)
C#---------------------------------------------------------------|
G#---------------------------------------------------------------|
E ---------------------------------------------------------------|  (6x)
b -1-0-0---1-0-0-0---1-0-0---1-0-1-4-0-0---4-0-0-0---4-0-1-4-0-0-|
F#-1-0-0---1-0-0-0---1-0-0---1-0-1-4-0-0---4-0-0-0---4-0-1-4-0-0-|
b -1-0-0---1-0-0-0---1-0-0---1-0-1-4-0-0---4-0-0-0---4-0-1-4-0-0-|





Comments


Popular Mychildren Mybride tabs & chords
Boris The Blade Tabs
Choke Intro Tabs
Every Moment Tabs
Faithless Intro Tabs
Headshot 3 Tabs
Hooligans 1 Tabs
Immaculate Murder Intro Tabs
On Wings Of Integrity 1 Tabs
On Wings Of Integrity 2 Tabs
Terra Firma Tabs


Song lyrics



↑ Back to top | Tablatures and chords are parodies/interpretations of the original songs. You may use it for private study, scholarship, research or language learning purposes only
© 2014 AZChords.com Contact us | Privacy policy | DMCA | Add/correct tabs | Request tabs | Top 50 tabs