» » »

Headshot Bass tabs (ver.1)

Artists:  A B C D E F G H I J K L M N O P Q R S T U V W X Y Z # 

Headshot Bass tabs (ver.1)

Mychildren Mybride
Rating:
0/5 (0 votes)

Hard to play? Try these video lessons and learn fast.
                If this isn't correct sorry I did my best
Thanx to jmc to getting me to listen to this band
Tempo is tricky and hard to tab

Start after Guitar intro
E |-------|----3---0------5----2-----5---5-----3---2-----3---3-----3---3|  
B |2333222|-------------------------------------------------------------|
F#|-------|-------------------------------------------------------------|
B |-------|000---0----000----0----000--0---000---0---000---0----000--0--|

|----------------3---0------5----2-----5---5-----3---2-----3---3-----3---3|
|---2333222---------------------------------------------------------------|
|-------------------------------------------------------------------------|
|000---------000---0----000----0----000--0---000---0---000---0----000--0--|

|---------------------------------------------------------------0---0-2|
|2223--2--0-----0---------------------------------------------2---2----|
|------------------5--568---1-2---2-1-1-2-4--1-2---2-1----1------------|
|------------0------------------4----------------4-----2----4----------|

|---------------------------------------------------------------0---0-2|
|2223--2--0-----0---------------------------------------------2---2----|
|------------------5--568---1-2---2-1-1-2-4--1-2---2-1----1------------|
|------------0------------------4----------------4-----2----4----------|

|------------------2----------------------------------------------------|
|300000300000300500-005---2-----2-----2-----2--2------------------------|
|--------------------------44444-44444-44444-44---2222222222211111111111|
|-----------------------------------------------------------------------|

|-------------------------------------------------2------------------------|
|0------323---323-013013013-----300000300000300500-005---2-----2-----2-----|
|---------------------------4-----------------------------44444-44444-44444|
|---000----000-------------------------------------------------------------|

|--------------------------------------------------------------|
|2--2-----------------------0----323---323-013013013-----------|
|-44--2222222222211111111111------------------------4-2---1----|
|-----------------------------000---000------------------------|

|---------------------------------------------------------|
|---------------------------------------------------------|
|---------------------------------------------------------|
|00-00-0000-00-0000-0000-0000-00-00-0000-00-0000-0000-0000|

|-------------------------------|
|------------------------------3|
|-------------------------------|
|0-0-----0--0--0-0-0-0-0-----00-|

|---------------------------------1-----1-------0-1-----1--------|
|3-0-0-3-0-0-0--2-3-0-3-0-2-3-2-0---0-0---0-0-0-----0-0---0-0-0-0|
|----------------------------------------------------------------|
|----------------------------------------------------------------|

|---------------------------------1-----1-------0-1-----1---------|
|3-0-0-3-0-0-0--2-3-0-3-0-2-3-2-0---0-0---0-0-0-----0-0---0-0-0-0-|
|-----------------------------------------------------------------|
|-----------------------------------------------------------------|

|1-0---0-1-0------------1-0---0-1-0----------1|
|----3-------0--0-----------3-------2--2-2-3--| X 4
|---------------------------------------------|
|---------------------------------------------|

|---------------------------------1-----1-------0-1-----1--------|
|3-0-0-3-0-0-0--2-3-0-3-0-2-3-2-0---0-0---0-0-0-----0-0---0-0-0-0|
|----------------------------------------------------------------|
|----------------------------------------------------------------|

|---------------------------------1-----1-------0-1-----1---------|
|3-0-0-3-0-0-0--2-3-0-3-0-2-3-2-0---0-0---0-0-0-----0-0---0-0-0-0-|
|-----------------------------------------------------------------|
|-----------------------------------------------------------------|


|----------------------------------------------------------|
|1-0-0--1-0-0-0---1-0-0--1-0-0--4-0-0-4-0-0-0--4-0-0-4-0-0-|
|----------------------------------------------------------|
|----------------------------------------------------------|
            
Hard to play? Try these video lessons and learn fast. | Correct




comments powered by Disqus
↑ Back to top | Tablatures and chords are parodies/interpretations of the original songs. You may use it for private study, scholarship, research or language learning purposes only