>
 >
Headshot!

Headshot! Guitar Tabs

Mychildren Mybride - Headshot! chords, tabs, tablatures, lyrics

Guitar lessons | Add/correct | Request | Top 50 tabs Artists:  A B C D E F G H I J K L M N O P Q R S T U V W X Y Z 0-9

Headshot! Guitar Tabs – Mychildren Mybride

CD, Sheet music, Poster

Do you like Headshot!? Share with your friends now
Bass TabsTabsTabs v2Tabs v3
                This is Headshot by Mychildren Mybride
                  I have Guitar 1 and 2 here please
                   enjoy dont forget to rate and
                    comment. Tuning - Drop B.



Things to know

h - Hammer on
p - Pull off
x - Times played
~ - Let ring
/ - slide up
\ - slide down


Guitar 1
|--------------------------------------------------------------------|
|--------------------------------------------------------------------|
|--------------------------------------------------------------------|
|--------------------------------------------------------------------|
|--------8---5--------10---7-----------10----10-----------13----12---|
|--0-0-0---0----0-0-0----0----11-11-11----11-----11-11-11----11------|

Guitar 2
|--------------|
|--------------|
|--------------|
|--------------|
|--0-0-0-------|
|--0-0-0-------|

Guitar 1
|-----------------------------------------------------------|
|-----------------------------------------------------------|
|------------------------------------6/10-10-10\9-9-9\6-6---|
|-----------------------------------------------------------|
|--------5---5--------5---5----------4/-8--8--8\7-7-7\4-4---|
|--8-8-8---8----8-8-8---8----7-7-7--------------------------|

Guitar 2
|-------------------------|
|-------------------------|
|--3/7-7-7\6-6-6\2-2------|
|-------------------------|
|--1/5-5-5\4-4-4\0-0------|
|-------------------------|

Guitar 1
|--------------------------------------------------------------------|
|--------------------------------------------------------------------|
|--------------------------------------------------------------------|
|--------------------------------------------------------------------|
|--------8---5--------10---7-----------10----10-----------13----12---|
|--0-0-0---0----0-0-0----0----11-11-11----11-----11-11-11----11------|

Guitar 2
|-----------------------------------------------------------|
|-----------------------------------------------------------|
|-----------------------------------------------------------|
|-----------------------------------------------------------|
|--------5---1--------7---4--------7---7--------10---8------|
|--0-0-0---0----0-0-0---0----8-8-8---8----8-8-8----8--------|

Guitar 1
|----------------------------------------------------|
|----------------------------------------------------|
|----------------------------------------------------|
|----------------------------------------------------|
|--------5---5--------5---5--------4---4--/8-7~------|
|--8-8-8---8----8-8-8---8----7-7-7---7---------------|

Guitar 2
|----------------------------------------------------|
|----------------------------------------------------|
|----------------------------------------------------|
|----------------------------------------------------|
|----------------------------------0------/5-4~------|
|--5-5-5-8-5-8--5-5-5-8-5-8--3-3-3---3-3-------------|

Guitar 1
|--------------------------------------------------------------------|
|--------------------------------------------------------------------|
|--------------------------------------------------------------------|
|--------------------------------------------------------------------|
|--------8---5--------10---7-----------10----10-----------13----12---|
|--0-0-0---0----0-0-0----0----11-11-11----11-----11-11-11----11------|

Guitar 2
|-----------------------------------------------------------|
|-----------------------------------------------------------|
|-----------------------------------------------------------|
|-----------------------------------------------------------|
|--------5---1--------7---4--------7---7--------10---8------|
|--0-0-0---0----0-0-0---0----8-8-8---8----8-8-8----8--------|

Guitar 1
|-----------------------------------------------------------|
|-----------------------------------------------------------|
|------------------------------------6/10-10-10\9-9-9\6-6---|
|-----------------------------------------------------------|
|--------5---5--------5---5----------4/-8--8--8\7-7-7\4-4---|
|--8-8-8---8----8-8-8---8----7-7-7--------------------------|

Guitar 2
|-----------------------------------------------------------|
|-----------------------------------------------------------|
|-----------------------------------3/7-7-7\6-6-6\2-2-------|
|-----------------------------------------------------------|
|-----------------------------------1/5-5-5\4-4-4\0-0-------|
|--5-5-5-8-5-8--5-5-5-8-5-8--3-3-3--------------------------|

Guitar 1
|--------------------------------------------------------------------|
|--------------------------------------------------------------------|
|--------------------------------------------------------------------|
|--------------------------------------------------------------------|
|--------8---5--------10---7-----------10----10-----------13----12---|
|--0-0-0---0----0-0-0----0----11-11-11----11-----11-11-11----11------|

Guitar 2
|-----------------------------------------------------------|
|-----------------------------------------------------------|
|-----------------------------------------------------------|
|-----------------------------------------------------------|
|--------5---1--------7---4--------7---7--------10---8------|
|--0-0-0---0----0-0-0---0----8-8-8---8----8-8-8----8--------|

Guitar 1
|----------------------------------------------------|
|----------------------------------------------------|
|----------------------------------------------------|
|----------------------------------------------------|
|--------5---5--------5---5--------4---4--/8-7~------|
|--8-8-8---8----8-8-8---8----7-7-7---7---------------|

Guitar 2
|----------------------------------------------------|
|----------------------------------------------------|
|----------------------------------------------------|
|----------------------------------------------------|
|----------------------------------0------/5-4~------|
|--5-5-5-8-5-8--5-5-5-8-5-8--3-3-3---3-3-------------|

Guitar 1
|--------------------------------------------------------------------------|
|--------------------------------------------------------------------------|
|--------------------------------------------------------------------------|
|--------------------------------------------------------------------------|
|--555---------555-4444-555-777-000--888---------888-7777-888-101010-000---|
|------000-000---------------------------888-888---------------------------|

Guitar 2
|-----------------------------------------------------------------------|
|-----------------------------------------------------------------------|
|-----------------------------------------------------------------------|
|-----------------------------------------------------------------------|
|--555---------555-4444-555-777-444-555---------555-4444-555-777-000----|
|------000-000--------------------------555-555-------------------------|

Guitar 1
|-------------------------------------------------------------------------|
|-------------------------------------------------------------------------|
|-------------------------------------------------------------------------|
|-------------------------------------------------------------------------|
|-------------------------------------------444444--777-444--777-101010---|
|--888-555-555-888--777-333-333-777--222222-------------------------------|

Guitar 2
|-------------------------------------------------------------------------|
|-------------------------------------------------------------------------|
|-------------------------------------------------------------------------|
|-------------------------------------------222222--555-222--555-888------|
|-------------------------------------------------------------------------|
|--888-555-555-888--777-333-333-777--555555-------------------------------|

Guitar 1
|--------------------------------------------------------------------------|
|--------------------------------------------------------------------------|
|--------------------------------------------------------------------------|
|--------------------------------------------------------------------------|
|--555---------555-4444-555-777-000--888---------888-7777-888-101010-000---|
|------000-000---------------------------888-888---------------------------|

Guitar 2
|-----------------------------------------------------------------------|
|-----------------------------------------------------------------------|
|-----------------------------------------------------------------------|
|-----------------------------------------------------------------------|
|--555---------555-4444-555-777-444-555---------555-4444-555-777-000----|
|------000-000--------------------------555-555-------------------------|

Guitar 1
|-------------------------------------------------------------------------|
|-------------------------------------------------------------------------|
|-------------------------------------------------------------------------|
|-------------------------------------------------------------------------|
|-------------------------------------------444444--777-444--777-101010---|
|--888-555-555-888--777-333-333-777--222222-------------------------------|

Guitar 2
|-------------------------------------------------------------------------|
|-------------------------------------------------------------------------|
|-------------------------------------------------------------------------|
|-------------------------------------------222222--555-222--555-888------|
|-------------------------------------------------------------------------|
|--888-555-555-888--777-333-333-777--555555-------------------------------|

Guitar 1
|---------------------------------------------------------|
|---------------------------------------------------------|
|---------------------------------------------------------|
|---------------------------------------------------------|
|--12p8---------12p8---------12-----13-----15-----13~-----|
|-------0-0-0-0------0-0-0-0----0-0----0-0----0-0---------|

Guitar 2
|------------------------------------------------------|
|------------------------------------------------------|
|------------------------------------------------------|
|------------------------------------------------------|
|--8p5---------8p5---------8-----10-----12-----10~-----|
|------0-0-0-0-----0-0-0-0---0-0----0-0----0-0---------|

Guitar 1
|---------------------------------------------------------|
|---------------------------------------------------------|
|---------------------------------------------------------|
|--5p2---------5p2---------2-------3-------5-------3~-----|
|------3-3-3-3-----3-3-3-3---3-3-3---3-3-3---3-3-3--------|
|---------------------------------------------------------|

Guitar 2
|-------------------------------------------------------|
|-------------------------------------------------------|
|-------------------------------------------------------|
|-------------------------------------------------------|
|--7------------7-------------3-----5-----7-----5~------|
|----10-7-7-7-7---10-7-7-7-7----7-7---7-7---7-7---------|

Guitar 1
|-----------------------------------------------------------|
|-----------------------------------------------------------|
|-----------------------------------------------------------|
|-----------------------------------------------------------|
|--5-----------5------------7----------------7-------8~-----|
|----8-8-8-8-8---8-8-8-8-8----10-10-10-10-10---10-10--------|

Guitar 2
|--------------------------------------------------------|
|--------------------------------------------------------|
|--------------------------------------------------------|
|--------------------------------------------------------|
|-------------------------------------------------5~-----|
|--8-5-5-5-5-5--8-5-5-5-5-5--10-7-7-7-7-7--10-7-7--------|

Guitar 1
|-----------------------------------------------|
|-----------------------------------------------|
|-----------------------------------------------|
|--------------------------------------5--------|
|------8p7h8-----8p7h8-5h7h8-5h7h8-7h8---3------|
|--000-------000--------------------------------|

Guitar 2
|-----------------------------------------------|
|-----------------------------------------------|
|-----------------------------------------------|
|--------------------------------------2--------|
|------5p4h5-----5p4h5-1h3h5-1h3h5-3h5---0------|
|--000-------000--------------------------------|


Guitar 1
|---------------------------------------------------------|
|---------------------------------------------------------|
|---------------------------------------------------------|
|---------------------------------------------------------|
|--12p8---------12p8---------12-----13-----15-----13~-----|
|-------0-0-0-0------0-0-0-0----0-0----0-0----0-0---------|

Guitar 2
|------------------------------------------------------|
|------------------------------------------------------|
|------------------------------------------------------|
|------------------------------------------------------|
|--8p5---------8p5---------8-----10-----12-----10~-----|
|------0-0-0-0-----0-0-0-0---0-0----0-0----0-0---------|

Guitar 1
|---------------------------------------------------------|
|---------------------------------------------------------|
|---------------------------------------------------------|
|--5p2---------5p2---------2-------3-------5-------3~-----|
|------3-3-3-3-----3-3-3-3---3-3-3---3-3-3---3-3-3--------|
|---------------------------------------------------------|

Guitar 2
|-------------------------------------------------------|
|-------------------------------------------------------|
|-------------------------------------------------------|
|-------------------------------------------------------|
|--7------------7-------------3-----5-----7-----5~------|
|----10-7-7-7-7---10-7-7-7-7----7-7---7-7---7-7---------|

Guitar 1
|-----------------------------------------------------------|
|-----------------------------------------------------------|
|-----------------------------------------------------------|
|-----------------------------------------------------------|
|--5-----------5------------7----------------7-------8~-----|
|----8-8-8-8-8---8-8-8-8-8----10-10-10-10-10---10-10--------|

Guitar 2
|--------------------------------------------------------|
|--------------------------------------------------------|
|--------------------------------------------------------|
|--------------------------------------------------------|
|-------------------------------------------------5~-----|
|--8-5-5-5-5-5--8-5-5-5-5-5--10-7-7-7-7-7--10-7-7--------|

Guitar 1
|----------------------------------------------------|
|----------------------------------------------------|
|----------------------------------------------------|
|--------------------------------------5-------------|
|------8p7h8-----8p7h8-5h7h8-5h7h8-7h8---3--1~-0~----|
|--000-------000-------------------------------------|

Guitar 2
|----------------------------------------------------|
|----------------------------------------------------|
|----------------------------------------------------|
|--------------------------------------2-------------|
|------5p4h5-----5p4h5-1h3h5-1h3h5-3h5---0--5~-4~----|
|--000-------000-------------------------------------|

Guitar 1 and 2
|---------------------------------|-
|---------------------------------|--
|---------------------------------|---
|---------------------------------|---- x 2
|--00-00--0-00--00-0000--0-00-----|---
|--00-00--0-00--00-0000--0-00-----|-

Guitar 1 and 2
|----------------------------------------|
|----------------------------------------|
|----------------------------------------|  (slower)
|------------------------------0---------|   <--
|--0-0~--0-0~-0-0~--0-0-0~--00-0-0000----|
|--0-0~--0-0~-0-0~--0-0-0~--00-0-0000----|

Guitar 1 and 2
|------------------------------------|
|------------------------------------|
|------------------------------------|
|--------------------------0---------|
|--0-0--0-0-0-0--0-0-0--00-0-0000----|
|--0-0--0-0-0-0--0-0-0--00-0-0000----|

Guitar 1 and 2
|-----------------------------------------|-
|-----------------------------------------|--
|-----------------------------------------|---
|-----------------------------------------|----
|--5-0-0--5-0-0-0--4/5-0-5-0-4/5\4-0------|-----
|--3-0-0--3-0-0-0--2/3-0-3-0-2/3\2-0------|------
                                           -------
                                           -------- x 2
Guitar 1 and 2                             -------
|-----------------------------------------|------
|-----------------------------------------|-----
|-----------------------------------------|----
|-----------------------------------------|---
|--8-0-0--8-0-0-0--5/8-0-0--8-0-0-0-0-----|--
|--6-0-0--6-0-0-0--3/6-0-0--6-0-0-0-0-----|-

Guitar 1 and 2
|-------------------------------------------------------|
|-------------------------------------------------------|
|-------------------------------------------------------|
|--6-5-3-5~--6-5-0~--6-5-3-5~--6-5-2~------3-3---5~-----|
|--6-5-3-5~--6-5-0~--6-5-3-5~--6-5-2~--2-2-3-3-3-5~-----|
|--6-5-3-5~--6-5-0~--6-5-3-5~--6-5-2~--2-2-3-3-3-5~-----|

Guitar 1 and 2
|-------------------------------------------------------|
|-------------------------------------------------------|
|-------------------------------------------------------|
|--6-5-3-5~--6-5-0~--6-5-3-5~--6-5-2~------2-----3~-----|
|--6-5-3-5~--6-5-0~--6-5-3-5~--6-5-2~--2-2-2-2-2-3~-----|
|--6-5-3-5~--6-5-0~--6-5-3-5~--6-5-2~--2-2-2-2-2-3~-----|

Guitar 1 and 2
|-------------------------------------------------------------|-
|-------------------------------------------------------------|--
|-------------------------------------------------------------|---
|--6-5-3-5--6-5-0~--------------6-5-3-5--0-3~------------5~---|---- x 2
|--6-5-3-5--6-5-0~-0-0-0-0-0-0--6-5-3-5--0-3~--3-3-3-3-3-5~---|---
|--6-5-3-5--6-5-0~-0-0-0-0-0-0--6-5-3-5--0-3~--3-3-3-3-3-5~---|-

Guitar 1 and 2
|-----------------------------------------|-
|-----------------------------------------|--
|-----------------------------------------|---
|-----------------------------------------|----
|--5-0-0--5-0-0-0--4/5-0-5-0-4/5\4-0------|-----
|--3-0-0--3-0-0-0--2/3-0-3-0-2/3\2-0------|------
                                           -------
                                           -------- x 2
Guitar 1 and 2                             -------
|-----------------------------------------|------
|-----------------------------------------|-----
|-----------------------------------------|----
|-----------------------------------------|---
|--8-0-0--8-0-0-0--5/8-0-0--8-0-0-0-0-----|--
|--6-0-0--6-0-0-0--3/6-0-0--6-0-0-0-0-----|-

Guitar 1 and 2
|------------------------------------------------------------------|-
|------------------------------------------------------------------|--
|------------------------------------------------------------------|---
|--1-0-0--1-0-0-0--1-0-0--1-0-1---4-0-0--4-0-0-0--4-0-0--4-0-0-----|---- x 2
|--1-0-0--1-0-0-0--1-0-0--1-0-1---4-0-0--4-0-0-0--4-0-0--4-0-0-----|---
|--1-0-0--1-0-0-0--1-0-0--1-0-1---4-0-0--4-0-0-0--4-0-0--4-0-0-----|-

Guitar 1 and 2 - make sure you palm mute heavy.
|------------------------------------------------------------------|
|------------------------------------------------------------------|
|------------------------------------------------------------------|
|------------------------------------------------------------------|
|--1-0-0--1-0-0-0--1-0-0--1-0-1---4-0-0--4-0-0-0--4-0-0--4-0-0-----|
|--1-0-0--1-0-0-0--1-0-0--1-0-1---4-0-0--4-0-0-0--4-0-0--4-0-0-----|

Guitar 1 - make sure you palm mute heavy.
|------------------------------------------------------------12~---|
|------------------------------------------------------------------|
|-------------------------------------------------------------9~---|
|------------------------------------------------------------------|
|--1-0-0--1-0-0-0--1-0-0--1-0-1---4-0-0--4-0-0-0--4-0-0--4-0-------|
|--1-0-0--1-0-0-0--1-0-0--1-0-1---4-0-0--4-0-0-0--4-0-0--4-0-------|

Guitar 2 - make sure you palm mute heavy.
|------------------------------------------------------------------|
|------------------------------------------------------------------|
|------------------------------------------------------------------|
|------------------------------------------------------------------|
|--1-0-0--1-0-0-0--1-0-0--1-0-1---4-0-0--4-0-0-0--4-0-0--4-0--5~---|
|--1-0-0--1-0-0-0--1-0-0--1-0-1---4-0-0--4-0-0-0--4-0-0--4-0-------|

Guitar 1 and 2 - Outro/Ending
|------------------------------------------------------------------|-
|------------------------------------------------------------------|--
|------------------------------------------------------------------|---
|--1-0-0--1-0-0-0--1-0-0--1-0-1---4-0-0--4-0-0-0--4-0-0--4-0-0-----|---- x 2
|--1-0-0--1-0-0-0--1-0-0--1-0-1---4-0-0--4-0-0-0--4-0-0--4-0-0-----|---
|--1-0-0--1-0-0-0--1-0-0--1-0-1---4-0-0--4-0-0-0--4-0-0--4-0-0-----|-





Comments


Popular Mychildren Mybride tabs & chords
Headshot! Bass Tabs
Hooligans Bass Tabs
Circle The Sky Tabs
Circle The Sky 1 Tabs
Every Moment Tabs
Headshot! 1 Tabs
Headshot! 2 Tabs
Immaculate Murder Intro Tabs
On Wings Of Integrity 1 Tabs
Terra Firma Tabs


Song lyrics



↑ Back to top | Tablatures and chords are parodies/interpretations of the original songs. You may use it for private study, scholarship, research or language learning purposes only
© 2014 AZChords.com Contact us | Privacy policy | DMCA | Add/correct tabs | Request tabs | Top 50 tabs