» » »

When You Sleep Tabs (ver.1)

Artists:  A B C D E F G H I J K L M N O P Q R S T U V W X Y Z # 

When You Sleep Tabs (ver.1)

My Bloody Valentine
Rating:
4/5 (4 votes)

Hard to play? Try these video lessons and learn fast.
                When You Sleep- My Bloody Valentine
(Listen to song to get idea of timing)

*Synthy Part 1 (x4)

|--6-7-6---------------|
|--------7-4-5-4---7~--|
|----------------4-----|
|----------------------|
|----------------------|
|----------------------|

*Background Synth

|------6~~~-|
|--7-9------|
|------3~~~-|
|--4-6------|
|-----------|
|-----------|

*Guitar
-Intro & Chorus

|--2-2-2-2-|-4-4-4-4-4-4-4-|-7-7-7-7-7-7-7-7-7-7-7-|
|--4-4-4-4-|-4-4-4-4-4-4-4-|-7-7-7-7-7-7-7-7-7-7-7-|
|--4-4-4-4-|-6-6-6-6-6-6-6-|-9-9-9-9-9-9-9-9-9-9-9-|
|--4-4-4-4-|-6-6-6-6-6-6-6-|-9-9-9-9-9-9-9-9-9-9-9-|
|--2-2-2-2-|-4-4-4-4-4-4-4-|-7-7-7-7-7-7-7-7-7-7-7-|
|--2-2-2-2-|-4-4-4-4-4-4-4-|-7-7-7-7-7-7-7-7-7-7-7-|

-Verse


|--2-2-2-2-2-2-2-2-2-|-------------------------|-2-2-2-2-2-2-2-2-2-|
|--4-4-4-4-4-4-4-4-4-|-4-4-4-4-4-4-4-4-4-4-4-4-|-4-4-4-4-4-4-4-4-4-|
|--4-4-4-4-4-4-4-4-4-|-4-4-4-4-4-4-4-4-4-4-4-4-|-4-4-4-4-4-4-4-4-4-|
|--4-4-4-4-4-4-4-4-4-|-4-4-4-4-4-4-4-4-4-4-4-4-|-4-4-4-4-4-4-4-4-4-|
|--2-2-2-2-2-2-2-2-2-|-6-6-6-6-6-6-6-6-6-6-6-6-|-2-2-2-2-2-2-2-2-2-|
|--2-2-2-2-2-2-2-2-2-|-4-4-4-4-4-4-4-4-4-4-4-4-|-2-2-2-2-2-2-2-2-2-|

|--------------------------|
|--4-4-4-4-4-4-4-4-4-4-4-4-|
|--4-4-4-4-4-4-4-4-4-4-4-4-|
|--4-4-4-4-4-4-4-4-4-4-4-4-|
|--6-6-6-6-6-6-6-6-6-6-6-6-|
|--4-4-4-4-4-4-4-4-4-4-4-4-|


Vocal Melody-

|------------|------------------|------------|------|------------------------|
|------------|------------------|------------|------|------------------------|
|------------|------------------|------------|------|--------------3---------|
|--4-6-4-2-1-|--4---4-2-1-------|------------|--1---|--4-6-4-2-1-2---4-4-4-1-|b
|------------|----2-------4-4-2-|--2-2---2-4-|----2-|------------------------|
|------------|------------------|------4-----|------|------------------------|

|------------------------------------|
|------------------------------------|
|------------------------------------|
|--1-1-1---1-1---1---1-1---1---------|
|--------4-----4---------4---4-2-4---|
|------------------4---------------2-|


Lyrics-
When I look at you
Oh, but I don't know what's real
Once in a while
And you make me laugh

And I'll sleep tomorrow
And it won't be long
I won't stand around
Then you took me down
When you walk away

When you say, "I do"
Oh, but I don't believe in you
I can't forget it
No...oooh

When you sleep tomorrow
And it won't be long
Once in a while
When you make me smile
When you turn your long blonde hair

When I look at you
Oh, but I don't know what's real
Once in a while
And you make me laugh

And I'll sleep tomorrow
And it won't be long
I won't stand around
Then you took me down
When you walk away
            
Hard to play? Try these video lessons and learn fast. | Correct




comments powered by Disqus
↑ Back to top | Tablatures and chords are parodies/interpretations of the original songs. You may use it for private study, scholarship, research or language learning purposes only