» » »

My Bloody Valentine, When You Sleep Tabs (ver.2)

Artists:  A B C D E F G H I J K L M N O P Q R S T U V W X Y Z # 

When You Sleep Tabs (ver.2)

My Bloody Valentine Tabs
 Rating:
4.6/5 (9 votes)
When You Sleep lessons Tabs too difficult? Try these video lessons and learn fast
1
                ----------------------------------------------------------------------------
                    WHEN YOU SLEEP - My Bloody Valentine
----------------------------------------------------------------------------
Thanks to: SCEF


Intro chords
B           C#min      E
7--7--7--7--9--9--9--9-12-12-12-12-12-12-12-12-|
7--7--7--7--9--9--9--9-12-12-12-12-12-12-12-12-|
8--8--8--8--9--9--9--9-13-13-13-13-13-13-13-13-|
9--9--9--9-11-11-11-11-14-14-14-14-14-14-14-14-|
9--9--9--9-11-11-11-11-14-14-14-14-14-14-14-14-|
7--7--7--7--9--9--9--9-12-12-12-12-12-12-12-12-|

Verse chords
B5  G#5
x   x
x   x
x   x
6   9
6   9
4   7


Solo Part
--14b15b14--12-------------------|
----------------14b15b14--12--10-|
---------------------------------|
---------------------------------|
---------------------------------|
---------------------------------|
            
Submit corrections

comments powered by Disqus
↑ Back to top | My Bloody Valentine Tabs for When You Sleep. Lyrics for acoustic guitar and electric guitar. 1 Tablatures and chords are parodies/interpretations of the original songs. You may use it for private study, scholarship, research or language learning purposes only