» » »

When You Sleep Bass tabs (ver.1)

Artists:  A B C D E F G H I J K L M N O P Q R S T U V W X Y Z # 

When You Sleep Bass tabs (ver.1)

My Bloody Valentine
Rating:
1/5 (1 vote)

Hard to play? Try these video lessons and learn fast.
                -----------------------------------------------------------------------------
-----------------------------------------------------------------------------

this might be useful since there are no bass tabs. 
Its hard to hear in the song, but this sounds good when playing along.

Tuning: Standard

Part I:
G|---------|---------|---------|---------|
D|---------|---------|---------|---------|
A|-2-2-2-2-|-2-2-2/4-|---4-4-4-|-4-4-4-4-|
E|---------|---------|---------|---------|

 |---------|---------|---------|---------|
 |---------|---------|---------|---------|
 |-7-7-7-7-|-7-7-7-7-|---7-7-7-|-7-7-7-7-|
 |---------|---------|---------|---------|


Part II:
G|---------|---------|---------|---------|
D|---------|---------|---------|---------|
A|-2-2-2-2-|-2-2-2-2-|-2-2-2-2-|-2-2-2-2-|
E|---------|---------|---------|---------|

 |---------|---------|---------|---------|
 |-4-4-4-4-|-4-4-4-4-|-4-4-4-4-|-4-4-4-4-|
 |---------|---------|---------|---------|
 |---------|---------|---------|---------|

 |---------|---------|---------|---------|
 |-9-9-9-9-|-9-9-9-9-|-9-9-9-9-|-9-9-9-9-|
 |---------|---------|---------|---------|
 |---------|---------|---------|---------|

 |-6-6-6-6-|-6-6-6-6-|-6-6-6-6-|-6-6-6-6-|
 |---------|---------|---------|---------|
 |---------|---------|---------|---------|
 |---------|---------|---------|---------|

Part III:
G|---------|---------|---------|---------|
D|---------|---------|---------|---------|
A|-2-2-2-2-|-2-2-2-2-|-2-2-2-2-|-2-2-2-2-|
E|---------|---------|---------|---------|

Part IV:
G|---------|---------|---------|---------|
D|---------|---------|---------|---------|
A|-2-2-2-2-|-2-2-2-2-|-2-2-2-2-|-2-2-2-2-|
E|---------|---------|---------|---------|

 |---------|---------|---------|---------|
 |-4-4-4-4-|-4-4-4-4-|-4-4-4-4-|-4-4-4-4-|
 |---------|---------|---------|---------|
 |---------|---------|---------|---------|

 |---------|---------|---------|---------|
 |-9-9-9-9-|-9-9-9-9-|-9-9-9-9-|-9-9-9-9-|
 |---------|---------|---------|---------|
 |---------|---------|---------|---------|

 |---------|---------|---------|---------|
 |---------|---------|---------|---------|
 |-4-4-4-4-|-4-4-4-4-|-4-4-4-4-|-4-4-4-4-|
 |---------|---------|---------|---------|

Part V:
G|---------|---------|---------|---------|
D|---------|---------|---------|---------|
A|-2-2-2-2-|-2-2-2-2-|-2-2-2-2-|-2-2-2-2-|
E|---------|---------|---------|---------|

 |---------|---------|---------|---------|
 |-4-4-4-4-|-4-4-4/8-|---8-8-8-|-8-8-8-8-|
 |---------|---------|---------|---------|
 |---------|---------|---------|---------|

 |---------|---------|---------|---------|
 |-9-9-9-9-|-9-9-9-9-|-9-9-9-9-|-9-9-9-9-|
 |---------|---------|---------|---------|
 |---------|---------|---------|---------|

 |---------|---------|---------|---------|
 |---------|---------|---------|---------|
 |-4-4-4-4-|-4-4-4-4-|-4-4-4-4-|-4-4-4-4-|
 |---------|---------|---------|---------|

Part VI:
G|---------|---------|---------|---------|
D|---------|---------|---------|---------|
A|-2-2-2-2-|-2-2-2-2-|-2-2-2-2-|-2-2-2-2-|
E|---------|---------|---------|---------|

 |---------|---------|---------|---------|
 |-4-4-4-4-|-4-4-4/8-|---8-8-8-|-8-8-8-8-|
 |---------|---------|---------|---------|
 |---------|---------|---------|---------|

 |---------|---------|---------|---------|
 |-9-9-9-9-|-9-9-9-9-|-9-9-9-9-|-9-9-9-9-|
 |---------|---------|---------|---------|
 |---------|---------|---------|---------|

 |-6-6-6-6-|-6-6-6-6-|-6-6-6-6-|-6-6-6-6-|
 |---------|---------|---------|---------|
 |---------|---------|---------|---------|
 |---------|---------|---------|---------|


-Part I      x4
-Part II     x2
-Part III    x1
-Part I      x2
-Part IV     x1
-Part V      x1
-Part III    x1
-Part I      x4
-Part VI     x2
-Part III    x1
-Part I      x8


| /  slide up
| \  slide down
| h  hammer-on
| p  pull-off
| ~  vibrato
| +  harmonic
| x  Mute note
=============================================================================
            
Hard to play? Try these video lessons and learn fast. | Correct




comments powered by Disqus
↑ Back to top | Tablatures and chords are parodies/interpretations of the original songs. You may use it for private study, scholarship, research or language learning purposes only